www.domaci.de Forum Indeks Home
Portal • Forum • Novi upisi • Pretraga • Link do nas • Domaći filmovi • Lista korisnika • Tim sajta • Proverite privatne poruke • Prijava • Registracija
Pravilnik • FAQ • Profil • Favorites • Galerija slika • Top lista • Download MP3 • MP3 razno • Spotovi • Noviteti 2013 • Muzički noviteti 2014

Mor ve öteşi
Upišite novu temu   Odgovorite na temu    www.domaci.de Forum Indeks -> ~ Naša MP3 riznica ~ -> ~ Akordi i tablature ~
::  
Autor Poruka
coco_bill
Zli carobnjak-lingvista
Zli carobnjak-lingvista



Godine: 37

Datum registracije: 22 Mar 2006
Poruke: 33433
Mesto: Novi Sad

serbia.gif
PorukaPostavljena: Sub Jan 30, 2010 10:53 pm    Naslov poruke: Mor ve öteşi Na vrh strane Na dno strane

Cambaz

E-------------------------------------------------------
B---------5h7--5-5-----------8-7-7-5-5-------5h7-5-5-4-4-
G--4-5-4----------7-7-5-5-4-----------7-5-4-------------
D-------------------------------------------------------
A-------------------------------------------------------
e-------------------------------------------------------

E---------------------------
B--------------------------
G--5-5-4-5-4---4-----------
D--------------7---7-4-5-6--- prvi deo početka
A--------------------------
e--------------------------

E---------------------------------------------
B--------5h7-5-5-----------8h10-7-5-7-5-------
G--4-5-4---------7-7-5-5-4--------------7-5-4-
D---------------------------------------------
A---------------------------------------------
e---------------------------------------------

----------------------
5h7-5-5-4-4-----4-5---
--------------5-5-------
----------------------
----------------------
----------------------

E...........Eb
ne habersin ne türksün

D..............Db
seni gören yollara dökülsün

E.............Eb
kul oldun köle oldun

D.................Db
kurşun geçirmez cam oldun

...........Am...........D
bütün dünya izler durur

...........C...............Am
afet-i azam bekler durur

.......C............B.....................Em
hedefini al, piyasanı al, her şeyi al

Am....................D
yandı dertler bitti tasa

............C..............Am
ben kurbanım bu cambaza

........C...................B............Em
iki gözüm kadar eminim sen yoksun

E...............Eb
var mısın, yoksun.

D..............Db
var mısın, yoksun.

C.................B................Em
iki gözüm, eminim, sen yoksun.

E.................Eb
var mısın, yoksun.

D......Db...........C-GX2
var mısın, yoksuuuuuuuunnnn

Završetak pesme:
E-Eb-D-Db (kraj)
C-G#(acık)
E-Eb-D-Db(kraj) 2.yer 2 kere yapılcak
C-G#



_________________

ı¤¤¤¤¤¤¤¤ı••••••••••••ı
 
coco_bill
Zli carobnjak-lingvista
Zli carobnjak-lingvista



Godine: 37

Datum registracije: 22 Mar 2006
Poruke: 33433
Mesto: Novi Sad

serbia.gif
PorukaPostavljena: Sub Jul 31, 2010 11:08 pm    Naslov poruke: Re: Mor ve öteşi Na vrh strane Na dno strane

İddia

E ------------0------------0------------
B----------4-----4-----4------4------4-
G------4------------4-------------4-----

E -------------0------------0------------
B----------4-----4-----4------4------4-
G------2------------2-------------2-----

E -------------0------------0------------
B----------4-----4-----4------4------4-
G------0------------0-------------0-----

E ------------0-----------0--2----------
B----------4-----4-------4-----4-------
G------4------------4----4--------------

Gör Bu Düğün
Bir Devrin Sonudur
Gör Bu Hüzün
Ne Aşk Nede Huzur

Duy,Duy
Anlamasanda Duy
Bil Yalnız Değilsin
İnanmasanda Duy

Sen Küçük Bir Bebektin
Neler,Neler Öğrendin
Çiçeksiz Bahçemizde
Kurşunlarla Dans Ettin
Kalbini Kırmak Gibi Olmasın Ama
Yalan Söylediler Sana

Gör Bu Hüzün
Ne Aşk Nede Huzur
Gör Bu Yüzün
Ne Mutlu Ne Cesur

Sen Küçük Bir Bebektin
Neler,Neler Öğrendin
Çiçeksiz Bahçemizde
Kurşunlarla Dans Ettin
Kalbini Kırmak Gibi Olmasın Ama
Yalan Söylediler Sana

_________________

ı¤¤¤¤¤¤¤¤ı••••••••••••ı
 
Prikaz poruka:   
Upišite novu temu   Odgovorite na temu    www.domaci.de Forum Indeks -> ~ Naša MP3 riznica ~ -> ~ Akordi i tablature ~ -> Mor ve öteşi Vreme je podešeno za GMT + 1 sat
Strana 1 od 1

 
Pređite u:  
Vi ne možete otvarati nove teme u ovom forumu
Vi ne možete odgovarati na teme u ovom forumu
Vi ne možete menjati Vaše poruke u ovom forumu
Vi ne možete brisati Vaše poruke u ovom forumu
Vi ne možete glasati u anketama u ovom forumu
Vi ne možete postavljati fajlove u ovom forumu
Vi ne možete preuzeti fajlove sa ovog foruma





- Burek Forum - Doček Nove 2018. godine - Venčanja, svadbe - Proslave - TipoTravel - Kuda večeras -

Bookmark to: Twitter Bookmark to: Facebook Bookmark to: Digg Bookmark to: Del.icio.us Bookmark to: StumbleUpon