www.domaci.de Forum Indeks Home
Portal • Forum • Novi upisi • Pretraga • Link do nas • Domaći filmovi • Lista korisnika • Tim sajta • Proverite privatne poruke • Prijava • Registracija
Pravilnik • FAQ • Profil • Favorites • Galerija slika • Top lista • Download MP3 • MP3 razno • Spotovi • Noviteti 2013 • Muzički noviteti 2014

Leonard Cohen
Upišite novu temu   Odgovorite na temu    www.domaci.de Forum Indeks -> ~ Naša MP3 riznica ~ -> ~ Akordi i tablature ~
::  
Autor Poruka
aureliano
♣ El Capitán ♠
♣ El Capitán ♠





Datum registracije: 15 Mar 2005
Poruke: 9092
Mesto: U zraku, na vodi i ponekad na Zemlji

california.gif
PorukaPostavljena: Sub Jul 31, 2010 3:09 am    Naslov poruke: Leonard Cohen Na vrh strane Na dno strane

Suzanne

Code:
 E . . . Esus4 E |E . . . Esus4 E|E . . . Esus4 E|

   E               * E
Suzanne takes you down
         E             * E
To her place near the river
         F#m              * F#m
You can hear the boats go by
          F#m              *  F#m
You can spend the night beside her
          E                    * E
And you know that she's half crazy
            E              *    E
But that's why you want to be there
         G#m              *  G#m
And she feeds you tea and oranges
           A                 * A
That come all the way from China
          E                *    E
And just when you mean to tell her
          F#m             *   F#m
That you have no love to give her
          E               *   E
Then she gets you on her wavelength
        F#m            * F#m
And she lets the river answer
            E                * E   Esus4  E   Esus4  E
That you've always been her lover
         G#m            * G#m
And you want to travel with her
         A               * A
And you want to travel blind
         E                   *  E
And you know that she will trust you
             F#m               * F#m           E
For you've touched her perfect body with your mind.

And Jesus was a sailor
When he walked upon the water
And he spent a long time watching
From his lonely wooden tower
And when he knew for certain
Only drowning men could see him
He said: "All men will be sailors then
Until the sea shall free them"
But he himself was broken
Long before the sky would open
Forsaken, almost human
He sank beneath your wisdom like a stone
And you want to travel with him
And you want to travel blind
And you think maybe you'll trust him
For he's touched your perfect body with his mind.

Now Suzanne takes your hand
And she leads you to the river
She is wearing rags and feathers
From Salvation Army counters
And the sun pours down like honey
On our lady of the harbour
And she shows you where to look
Among the garbage and the flowers
There are heroes in the seaweed
There are children in the morning
They are leaning out for love
And they will lean that way forever
While Suzanne holds the mirror
And you want to travel with her
And you want to travel blind
And you know that you can trust her
For she's touched your perfect body with her mind.

Intro:

    E               *   E                   *   E                   *   E
    |   .   .   .   .   .   |   .   .   .   .   .   |   .   .   .   .   .   |   .   .   .
E:-------------------------------------------------------------------------------------------:
B:--0-----------------------0-----------------------0-----------------------0----------------:
G:------1-------1---2---1-------1-------1---2---1-------1-------1---2---1-------1-------1----:
D:----2---2---2---2---2---2---2---2---2---2---2---2---2---2---2---2---2---2---2---2---2---2--:
A:--------------2---2---2---------------2---2---2---------------2---2---2--------------------:
E:--0-------0---------------0-------0---------------0-------0---------------0-------0--------:


Verse:

    E               *   E                           *   E
    |   .   .   .   |   .   .   .   |   .   .   .   |   .   .   .
E:-------------------------------------------------------------------:
B:--0-------------------------------0--------------------------------:
G:------1-------1---2---1-------1-------1-------1---2---1-------1----:
D:----2---2---2---2---2---2---2---2---2---2---2---2---2---2---2---2--:
A:-------------------------------------------------------------------:
E:--0-------0---------------0-------0-------0---------------0--------:

    F#m             *   F#m                         *   F#m
    |   .   .   .   |   .   .   .   |   .   .   .   |   .   .   .
E:-------------------------------------------------------------------:
B:--2-------------------------------2--------------------------------:
G:------2-------2---4---2-------2-------2-------2---4---2-------2----:
D:----4---4---4---4---4---4---4---4---4---4---4---4---4---4---4---4--:
A:-------------------------------------------------------------------:
E:--2-------2---------------2-------2-------2---------------2--------:

    E               *   E                           *   E
    |   .   .   .   |   .   .   .   |   .   .   .   |   .   .   .
E:-------------------------------------------------------------------:
B:--0-------------------------------0--------------------------------:
G:------1-------1---2---1-------1-------1-------1---2---1-------1----:
D:----2---2---2---2---2---2---2---2---2---2---2---2---2---2---2---2--:
A:-------------------------------------------------------------------:
E:--0-------0---------------0-------0-------0---------------0--------:

    G#m             *   G#m         A               *   A
    |   .   .   .   |   .   .   .   |   .   .   .   |   .   .   .   
E:----------------------------------0--------------------------------:
B:--4-----------------------------------2-------2---3---2---0---2----:
G:------4-------4---6---4-------4-----2---2--------------------------:
D:----6---6---6---6---6---6---6---6-----------2---2---2---2---2---2--:
A:----------------------------------0-------0------------------------:
E:--4-------4---------------4----------------------------------------:

    E               *   E           F#m             *   F#m
    |   .   .   .   |   .   .   .   |   .   .   .   |   .   .   .   
E:-------------------------------------------------------------------:
B:--0-------------------------------2--------------------------------:
G:------1-------1---2---1-------1-------2-------2---4---2-------2----:
D:----2---2---2---2---2---2---2---2---4---4---4---4---4---4---4---4--:
A:-------------------------------------------------------------------:
E:--0-------0---------------0-------2-------2---------------2--------:

    E               *   E           F#m             *   F#m
    |   .   .   .   |   .   .   .   |   .   .   .   |   .   .   .   
E:-------------------------------------------------------------------:
B:--0-------------------------------2--------------------------------:
G:------1-------1---2---1-------1-------2-------2---4---2-------2----:
D:----2---2---2---2---2---2---2---2---4---4---4---4---4---4---4---4--:
A:-------------------------------------------------------------------:
E:--0-------0---------------0-------2-------2---------------2--------:

    E               *   E                   *   E
    |   .   .   .   |   .   .   .   |   .   .   .   |   .
E:-----------------------------------------------------------:
B:--0-----------------------------------------------0--------:
G:------1-------1---2---1-------1-------1---2---1-------1----:
D:----2---2---2---2---2---2---2---2---2---2---2---2---2---2--:
A:--------------2---2---2---------------2---2---2------------:
E:--0-------0---------------0-------0---------------0--------:


Chorus:

    G#m             *   G#m         A               *   A
    |   .   .   .   |   .   .   .   |   .   .   .   |   .   .   .           
E:----------------------------------0--------------------------------:
B:--4-----------------------------------2-------2---3---2---0---2----:
G:------4-------4---6---4-------4-----2---2--------------------------:
D:----6---6---6---6---6---6---6---6-----------2---2---2---2---2---2--:
A:----------------------------------0-------0------------------------:
E:--4-------4---------------4----------------------------------------:

    E               *   E           F#m             *   F#m
    |   .   .   .   |   .   .   .   |   .   .   .   |   .   .   .   
E:-------------------------------------------------------------------:
B:--0-------------------------------2--------------------------------:
G:------1-------1---2---1-------1-------2-------2---4---2-------2----:
D:----2---2---2---2---2---2---2---2---4---4---4---4---4---4---4---4--:
A:-------------------------------------------------------------------:
E:--0-------0---------------0-------2-------2---------------2--------:

    E               *   E                   *   E
    |   .   .   .   |   .   .   .   |   .   .   .   |   .   .   .       
E:-------------------------------------------------------------------:
B:--0-----------------------0-----------------------0----------------:
G:------1-------1---2---1-------1-------1---2---1-------1-------1----:
D:----2---2---2---2---2---2---2---2---2---2---2---2---2---2---2---2--:
A:--------------2---2---2---------------2---2---2--------------------:
E:--0-------0---------------0-------0---------------0-------0--------:


Ending:

    E               *   E                   *   E
    |   .   .   .   |   .   .   .   |   .   .   .   |
E:-----------------------------------------------------:
B:--0-----------------------0--------------------------:
G:------1-------1---2---1-------1-------1---2---2---1--:
D:----2---2---2---2---2---2---2---2---2---2---2---2----:
A:--------------2---2---2---------------2---2---2------:
E:--0-------0---------------0-------0---------------0--:



_________________
I tad su došli popovi... Pa topovi... Pa lopovi...
I čitav svet se izobličio...
Ispuzali su grabljivci... Pa lažljivci... Snalažljivci...


 
aureliano
♣ El Capitán ♠
♣ El Capitán ♠





Datum registracije: 15 Mar 2005
Poruke: 9092
Mesto: U zraku, na vodi i ponekad na Zemlji

california.gif
PorukaPostavljena: Sub Jul 31, 2010 3:10 am    Naslov poruke: Na vrh strane Na dno strane

The Partisan

Code:
Intro: Am

           C        E/b      Am
When they poured across the border
       C         E/b   Am
I was cautioned to surrender
  C               G
This I could not do
F                  C      E/b   Am
I took my gun and vanished

I have changed my name so often
I've lost my wife and children
But I have many friends
And some of them are with me

An old woman gave us shelter
Kept us hidden in the garret
Then the soldiers came
She died without a whisper

There were three of us this morning
I'm the only one this evening
But I must go on
The frontiers are my prison

Oh, the wind, the wind is blowing
Through the graves the wind is blowing
Freedom soon will come
Then we'll come from the shadows

Les Allemands e'taient chez moi
Ils me dirent, "Signe toi"
Mais je n'ai pas peur
J'ai repris mon arme

J'ai change' cent fois de nom
J'ai perdu femme et enfants
Mais j'ai tant d'amis
J'ai la France entie're

Un vieil homme dans un grenier
Pour la nuit nous a cache'
Les Allemands l'ont pris
Il est mort sans surprise

Oh, the wind, the wind is blowing
Through the graves the wind is blowing
Freedom soon will come
Then we'll come from the shadows

Intro:

    Am
    |           .           .           .
D:---------------------------------------------------:
A:------1-----1-----1-----1-----1-----1-----1-----1--:
F:----2-----2-----2-----2-----2-----2-----2-----2----:
C:--------2-----------2-----------2-----------2------:
G:--0-----------------------0------------------------:
D:--------------0-----------------------0------------:  (x4)

    Am
    |           .           .           .
D:---------------------------------------------------:
A:------1-----1-----1-----1-----1-----1-----1-----0--:
F:----2-----2-----2-----2-----2-----2-----2-----0----:
C:--------2-----------2-----------2-----------0------:
G:--0-----------------------0------------------------:
D:--------------0-----------------------0------------:


Verse:

    C           E/b         Am
    |           .           .           .
D:---------------------------------------------------:
A:------1-----1-----0-----0-----1-----1-----1-----0--:
F:----0-----0-----1-----1-----2-----2-----2-----0----:
C:--------2-----------2-----------2-----------0------:
G:--3-----------2-----------0------------------------:
D:--------------------------------------0------------:

    C           E/b         Am
    |           .           .           .
D:---------------------------------------------------:
A:------1-----1-----0-----0-----1-----1-----1-----0--:
F:----0-----0-----1-----1-----2-----2-----2-----0----:
C:--------2-----------2-----------2-----------0------:
G:--3-----------2-----------0------------------------:
D:--------------------------------------0------------:

    C                       G
    |           .           .           .
D:---------------------------------------------------:
A:------1-----1-----1-----0-----3-----3-----3-----3--:
F:----0-----0-----0-----0-----4-----4-----4-----4----:
C:--------2-----------0-----------5-----------5------:
G:--3-----------3-----------------------5------------:
D:--------------------------3------------------------:

    G                       F
    |           .           .           .
D:---------------------------------------------------:
A:------3-----3-----3-----0-----1-----1-----1-----1--:
F:----4-----4-----4-----0-----2-----2-----2-----2----:
C:--------5-----------0-----------3-----------3------:
G:--------------5-----------------------3------------:
D:--3-----------------------1------------------------:

    F                       C
    |           .           .           .
D:---------------------------------------------------:
A:------1-----1-----1-----0-----1-----1-----1-----0--:
F:----2-----2-----2-----0-----0-----0-----0-----0----:
C:--------3-----------0-----------2-----------0------:
G:--------------3-----------3-----------3------------:
D:--1------------------------------------------------:

    E/b                     Am
    |           .           .           .
D:---------------------------------------------------:
A:------0-----0-----0-----0-----1-----1-----1-----1--:
F:----1-----1-----1-----0-----2-----2-----2-----2----:
C:--------2-----------0-----------2-----------2------:
G:--2-----------2-----------0------------------------:
D:--------------------------------------0------------:

    Am
    |           .           .           .
D:---------------------------------------------------:
A:------1-----1-----1-----1-----1-----1-----1-----1--:
F:----2-----2-----2-----2-----2-----2-----2-----2----:
C:--------2-----------2-----------2-----------2------:
G:--0-----------------------0------------------------:
D:--------------0-----------------------0------------:

    Am
    |           .           .           .
D:---------------------------------------------------:
A:------1-----1-----1-----1-----1-----1-----1-----0--:
F:----2-----2-----2-----2-----2-----2-----2-----0----:
C:--------2-----------2-----------2-----------0------:
G:--0-----------------------0------------------------:
D:--------------0-----------------------0------------:

_________________
I tad su došli popovi... Pa topovi... Pa lopovi...
I čitav svet se izobličio...
Ispuzali su grabljivci... Pa lažljivci... Snalažljivci...


 
aureliano
♣ El Capitán ♠
♣ El Capitán ♠





Datum registracije: 15 Mar 2005
Poruke: 9092
Mesto: U zraku, na vodi i ponekad na Zemlji

california.gif
PorukaPostavljena: Sub Jul 31, 2010 3:11 am    Naslov poruke: Na vrh strane Na dno strane

Famous Blue Raincoat

Code:
Chords:

Bm7:      x24232
F#m7:     242222
C#m7:     x46454

Intro: Bm7.. ...|G.. ...|Em.. ...|F#m7.. ...|
       Bm7.. ...|G.. ...|Em.. ...|F#m7.. ...|

     Bm7                      G
It's four in the morning, the end of December
Em                           F#m7
I'm writing you now just to see if you're better
 Bm7                   G
New York is cold, but I like where I'm living
       Em                       F#m7
There's music on Clinton Street all through the evening
Bm7                 C#m7                 Bm7               C#m7
I hear that you're building your little house deep in the desert
Bm7                A                          Bm7                  A
You're living for nothing now, I hope you're keeping some kind of record

          D                                A
Yes, and Jane came by with a lock of your hair
                              Bm7
She said that you gave it to her
                                    C#m7   A
That night that you planned to go clear
G                 F#m7
Did you ever go clear?

Ah, the last time we saw you you looked so much older
Your famous blue raincoat was torn at the shoulder
You'd been to the station to meet every train
And you came home without Lili Marlene
And you treated my woman to a flake of your life
And when she came back she was nobody's wife

Well I see you there with the rose in your teeth
One more thin gypsy thief
Well I see Jane's awake
She sends her regards

Bm7.. ...|G.. ...|Em.. ...|F#m7.. ...|

And what can I tell you my brother, my killer
What can I possibly say?
I guess that I miss you, I guess I forgive you
I'm glad you stood in my way
If you ever come by here, for Jane or for me
Well your enemy is sleeping, and his woman is free

Yes, and thanks, for the trouble you took from her eyes
I thought it was there for good
So I never tried

And Jane came by with a lock of your hair
She said that you gave it to her
That night that you planned to go clear
Sincerely, L. Cohen

Bm7.. ...|G.. ...|Em.. ...|F#m7.. ...|

Intro:

    Bm7                     G
    |   .   .   .   .   .   |   .   .   .   .   .
D:---------------------------------------------------:
A:------3---3-------3---3-------0---0-------0---0----:
F:------2---2-------2---2-------0---0-------0---0----:
C:----4---4---4---4---4---0---0---0---0---0---0---0--:
G:--2-----------2------------------------------------:
D:--------------------------3-----------3------------:

    Em                      F#m7
    |   .   .   .   .   .   |   .   .   .   .   .
D:---------------------------------------------------:
A:------0---0-------0---0-------2---2-------2---2----:
F:------0---0-------0---0-------2---2-------2---2----:
C:----2---2---2---2---2---0---2---2---2---2---2---2--:
G:---------------------------------------------------:     (x2)
D:--0-----------0-----------2-----------2------------:


Verse:

    Bm7                     G
    |   .   .   .   .   .   |   .   .   .   .   .
D:---------------------------------------------------:
A:------3---3-------3---3-------0---0-------0---0----:
F:------2---2-------2---2-------0---0-------0---0----:
C:----4---4---4---4---4---0---0---0---0---0---0---0--:
G:--2-----------2------------------------------------:
D:--------------------------3-----------3------------:

    Em                      F#m7
    |   .   .   .   .   .   |   .   .   .   .   .
D:---------------------------------------------------:
A:------0---0-------0---0-------2---2-------2---2----:
F:------0---0-------0---0-------2---2-------2---2----:
C:----2---2---2---2---2---0---2---2---2---2---2---2--:
G:---------------------------------------------------:
D:--0-----------0-----------2-----------2------------:

    Bm7                     G
    |   .   .   .   .   .   |   .   .   .   .   .
D:---------------------------------------------------:
A:------3---3-------3---3-------0---0-------0---0----:
F:------2---2-------2---2-------0---0-------0---0----:
C:----4---4---4---4---4---0---0---0---0---0---0---0--:
G:--2-----------2------------------------------------:
D:--------------------------3-----------3------------:

    Em                      F#m7
    |   .   .   .   .   .   |   .   .   .   .   .
D:---------------------------------------------------:
A:------0---0-------0---0-------2---2-------2---2----:
F:------0---0-------0---0-------2---2-------2---2----:
C:----2---2---2---2---2---0---2---2---2---2---2---2--:
G:---------------------------------------------------:
D:--0-----------0-----------2-----------2------------:

    Bm7                     C#m7
    |   .   .   .   .   .   |   .   .   .   .   .
D:---------------------------------------------------:
A:------3---3-------3---3-------5---5-------5---5----:
F:------2---2-------2---2-------4---4-------4---4----:
C:----4---4---4---4---4---0---6---6---6---6---6---0--:
G:--2-----------2-----------4-----------4------------:
D:---------------------------------------------------:

    Bm7                     C#m7
    |   .   .   .   .   .   |   .   .   .   .   .
D:---------------------------------------------------:
A:------3---3-------3---3-------5---5-------5---5----:
F:------2---2-------2---2-------4---4-------4---4----:
C:----4---4---4---4---4---0---6---6---6---6---6---0--:
G:--2-----------2-----------4-----------4------------:
D:---------------------------------------------------:

    Bm7                     A
    |   .   .   .   .   .   |   .   .   .   .   .
D:---------------------------------------------------:
A:------3---3-------3---3-------2---2-------2---2----:
F:------2---2-------2---2-------2---2-------2---2----:
C:----4---4---4---4---4---0---2---2---2---2---2---0--:
G:--2-----------2-----------0-----------0------------:
D:---------------------------------------------------:

    Bm7                     A
    |   .   .   .   .   .   |   .   .   .   .   .
D:---------------------------------------------------:
A:------3---3-------3---3-------2---2-------2---2----:
F:------2---2-------2---2-------2---2-------2---2----:
C:----4---4---4---4---4---0---2---2---2---2---2---0--:
G:--2-----------2-----------0-----------0------------:
D:---------------------------------------------------:


Chorus:

    D
    |   .   .   .   .   .   |   .   .   .   .   .
D:------2---2-------2---2-------2---2-------2---2----:
A:------0---3-------0---3-------0---3-------0---3----:
F:----2---2---2---2---2---2---2---2---2---2---2---0--:
C:--0-----------0-----------0-----------0------------:
G:---------------------------------------------------:
D:---------------------------------------------------:

    A
    |   .   .   .   .   .   |   .   .   .   .   .
D:---------------------------------------------------:
A:------0---2-------0---2-------0---2-------0---2----:
F:------2---2-------2---2-------2---2-------2---2----:
C:----2---2---2---2---2---2---2---2---2---2---2---0--:
G:--0-----------0-----------0-----------0------------:
D:---------------------------------------------------:

    Bm7
    |   .   .   .   .   .   |   .   .   .   .   .
D:---------------------------------------------------:
A:------3---3-------3---3-------3---3-------3---3----:
F:------2---2-------2---2-------2---2-------2---2----:
C:----4---4---4---4---4---4---4---4---4---4---4---0--:
G:--2-----------2-----------2-----------2------------:
D:---------------------------------------------------:

    C#m7                    A
    |   .   .   .   .   .   |   .   .   .   .   .
D:---------------------------------------------------:
A:------5---5-------5---5-------5---5-------5---5----:
F:------4---4-------4---4-------6---6-------6---6----:
C:----6---6---6---6---6---0---7---7---7---7---7---7--:
G:--4-----------4-----------------------7------------:
D:--------------------------5------------------------:

    G                       F#m7
    |   .   .   .   .   .   |   .   .   .   .   .
D:---------------------------------------------------:
A:------3---3-------3---3-------2---2-------2---2----:
F:------4---4-------4---4-------2---2-------2---2----:
C:----5---5---5---5---5---0---2---2---2---2---2---2--:
G:--------------5------------------------------------:
D:--3-----------------------2-----------2------------:

_________________
I tad su došli popovi... Pa topovi... Pa lopovi...
I čitav svet se izobličio...
Ispuzali su grabljivci... Pa lažljivci... Snalažljivci...


 
aureliano
♣ El Capitán ♠
♣ El Capitán ♠





Datum registracije: 15 Mar 2005
Poruke: 9092
Mesto: U zraku, na vodi i ponekad na Zemlji

california.gif
PorukaPostavljena: Sub Jul 31, 2010 3:13 am    Naslov poruke: Na vrh strane Na dno strane

Bird on the wire

Code:
Intro: A

("Comme l'oiseau sur la branche
Comme l'ivrogne dans le coeur de la nuit
J'ai cherche ma liberte")

A.. ...|E.. ...|A.. ...|D.. ...|
A.. ...|E.. ...|A.. Asus4..|A.. ...|

        A           E
Like a bird on the wire
         A                      D
Like a drunk in some midnight choir
         A          E          A.. Asus4..|A.. ...|
I have tried in my way to be free

Like a worm on a hook
Like a knight bent down in some old fashioned book
It was the shape, the shape of our love twisted me

D                       A
If I, if I have been unkind
   Bm                                              A
I hope you can, I hope you can just let it all go by, go by
D                            A
And if I, if I have been untrue
                   Bm                                         E.. Esus4..|E.. ...|
It's just that I thought a lover had to be some kind of liar too

Like a baby, stillborn
Like a beast with his horn
I have torn everyone who reached out for me

But I swear by this song
And by all that I have done wrong
I will make it all up to thee

I saw a beggar, he was leaning on his wooden crutch
He says to me, "Come on now, you must not ask for so much."
And another pretty woman, she was leaning in her darkened door
She cried out to me, "Come on now, why don't you ask,
Why don't you ask for just a little more?
Just a little more?"

Like a bird on the wire
Like a drunk in some old midnight choir
         A          E          D  A
I have tried in my way to be free

Intro:

    A
    |   .   .   .   .
D:-----------------------:
A:----------2...----2----:
F:----------2...---------:
C:------2-------------2--:
G:--0--------------------:
D:-----------------------:

    A
    |   .   .   .   .   .   |   .   .   .   .   .
D:---------------------------------------------------:
A:--3-------3---2-------0---2------------------------:
F:------2-----------2-----------2---2-------2---2----:
C:----2---2---2---2---2---2---2---2---2---2---2---2--:
G:--0-----------0-----------0-----------0------------:
D:---------------------------------------------------:

    A
    |   .   .   .   .   .   |   .   .   .   .   .
D:---------------------------------------------------:    ("Comme l'oiseau sur la branche...")
A:------------------2---2-------2---2-------2---2----:
F:------2---2-------2---2-------2---2-------2---2----:
C:----2---2---2---2---2---2---2---2---2---2---2---2--:
G:--0-----------0-----------0------------------------:
D:---------------------------------------------------:

    A
    |   .   .   .   .   .   |   .   .   .   .   .
D:---------------------------------------------------:
A:------2---2-------2---2-------2---2-----------2----:
F:------2---2-------2---2-------------------2--------:
C:----2---2---2---2---2---2---2---2---2---2---2---2--:
G:--0-----------0-----------0-----------0------------:
D:---------------------------------------------------:

    E                       A
    |   .   .   .   .   .   |   .   .   .   .   .
D:----------------------------------------------0----:
A:--0-------------------0---2-------2-------3--------:
F:------1---0h1-----1-----------2--------------------:
C:----2---2-------2---2---2---2---2---2---2---2---2--:
G:--------------------------0-----------0------------:
D:--0-----------0------------------------------------:

    D                       A
    |   .   .   .   .   .   |   .   .   .   .   .
D:------2---2h3-2---0-----------0--------------------:
A:--3-------------------3---0h2-----0h2-----3---2----:
F:----2---2---2---2---2---2-------2------------------:
C:--0-------------------------------------2---2---2--:
G:--------------------------------------0------------:
D:---------------------------------------------------:

    E                       A
    |   .   .   .   .   .   |   .   .   .   .   .
D:---------------------------------------------------:
A:--0-------------------0-----------2---3-------3----:
F:------1---0h1-----1-------2---2-----------2--------:
C:----2---2-------2---2---2---2---2---2---2---2---2--:
G:--------------------------0-----------0------------:
D:--0-----------0------------------------------------:

    A
    |   .   .   .   .   .
D:---------------------------:
A:--2-------0---2------------:
F:------2-----------2---2----:
C:----2---2---2---2---2---2--:
G:--0-----------0------------:

_________________
I tad su došli popovi... Pa topovi... Pa lopovi...
I čitav svet se izobličio...
Ispuzali su grabljivci... Pa lažljivci... Snalažljivci...


 
aureliano
♣ El Capitán ♠
♣ El Capitán ♠





Datum registracije: 15 Mar 2005
Poruke: 9092
Mesto: U zraku, na vodi i ponekad na Zemlji

california.gif
PorukaPostavljena: Sub Jul 31, 2010 3:14 am    Naslov poruke: Na vrh strane Na dno strane

Who By Fire

Code:
Intro: Am/e . . . |Am/e . . . |Am/f . . . |Am/f . . . |
       E . . . |E . . . |E . . . |E . . . |

     Am  G  Am
And who by fire
 Am  G  Am
Who by water
  C  G      C
Who in the sunshine
  C  G      C
Who in the night time
 Am  G  Am
Who by high ordeal
 Am  G  Am
Who by common trial
  C          G           C
Who in your merry merry month of may
  C     G     C
Who by very slow decay
      Am/e       Am/f   E
And who shall I say is calling?

And who in her lonely slip
Who by barbiturate
Who in these realms of love
Who by something blunt
And who by avalanche
Who by powder
Who for his greed
Who for his hunger
And who shall I say is calling?

And who by brave assent
Who by accident
Who in solitude
Who in this mirror
Who by his lady's command
Who by his own hand
Who in mortal chains
Who in power
And who shall I say is calling?

Am . G . |Am . . . |Am . . . |Am . . . |
Am . G . |Am . . . |Am . . . |Am . . . |
Am . G . |Am . . . |Am . . . |Am . . . |

Intro:

    Am/e                            Am/f
    |   .   .   .   |   .   .   .   |   .   .   .   |   .   .  .
E:-------------------------------------------------------------------:
B:--1-------------------------------1--------------------------------:
G:------2-------2-------2-------2------2--------2-------2-------2----:
D:----2---2---2---2---2---2---2---2---2-2-2---2---2---2---2---2---2--:
A:-------------------------------------------------------------------:
E:--0-------0-------0-------0-------1-------1-------1-------1--------:

    E
    |   .   .   .   |   .   .   .   |   .   .   .   |   .   .   .
E:-------------------------------------------------------------------:
B:-------------------------------------------------------------------:
G:------1---1---1---1---1---1---1---1---1---1---1---1---1---1---1----:
D:----2---2---2---2---2---2---2---2---2---2---2---2---2---2---2---0--:
A:-------------------------------------------------------------------:
E:--0----------------------------------------------------------------:


Verse:

    Am      G       Am                      G       Am
    |   .   .   .   |   .   .   .   |   .   .   .   |   .   .   .
E:-------------------------------------------------------------------:
B:--1-------0-------1---------------1-------0-------1----------------:
G:------2-------0-------2-------2-------2-------0-------2-------2----:
D:----2---2---0---0---2---2---2---2---2---2---0---0---2---2---2---2--:
A:--0---------------0---------------0---------------0----------------:
E:----------3---------------0---------------3---------------0--------:

    C       G       C                       G       C
    |   .   .   .   |   .   .   .   |   .   .   .   |   .   .   .
E:-------------------------------------------------------------------:
B:--1-------3-------1---------------1-------3-------1----------------:
G:------0-------0-------0-------0-------0-------0-------0-------0----:
D:----2---2---0---0---2---2---2---2---2---2---0---0---2---2---2---2--:
A:--3---------------3-------3-------3---------------3-------3--------:
E:----------3-------------------------------3------------------------:

    Am      G       Am                      G       Am
    |   .   .   .   |   .   .   .   |   .   .   .   |   .   .   .
E:-------------------------------------------------------------------:
B:--1-------0-------1---------------1-------0-------1----------------:
G:------2-------0-------2-------2-------2-------0-------2-------2----:
D:----2---2---0---0---2---2---2---2---2---2---0---0---2---2---2---2--:
A:--0---------------0---------------0---------------0----------------:
E:----------3---------------0---------------3---------------0--------:

    C       G       C                       G       C
    |   .   .   .   |   .   .   .   |   .   .   .   |   .   .   .
E:-------------------------------------------------------------------:
B:--1-------3-------1---------------1-------3-------1----------------:
G:------0-------0-------0-------0-------0-------0-------0-------0----:
D:----2---2---0---0---2---2---2---2---2---2---0---0---2---2---2---2--:
A:--3---------------3-------3-------3---------------3-------3--------:
E:----------3-------------------------------3------------------------:

    Am/e                            Am/f
    |   .   .   .   |   .   .   .   |   .   .   .   |   .   .   .
E:-------------------------------------------------------------------:
B:--1-------------------------------1--------------------------------:
G:------2-------2-------2-------2-------2-------2-------2-------2----:
D:----2---2---2---2---2---2---2---2---2---2---2---2---2---2---2---2--:
A:-------------------------------------------------------------------:
E:--0-------0-------0-------0-------1-------1-------1-------1--------:

    E
    |   .   .   .   |   .   .   .   |   .   .   .   |   .   .   .
E:-------------------------------------------------------------------:
B:--0----------------------------------------------------------------:
G:------1---1---1---1---1---1---1---1---1---1---1---1---1---1---1----:
D:----2---2---2---2---2---2---2---2---2---2---2---2---2---2---2---2--:
A:-------------------------------------------------------------------:

_________________
I tad su došli popovi... Pa topovi... Pa lopovi...
I čitav svet se izobličio...
Ispuzali su grabljivci... Pa lažljivci... Snalažljivci...


 
aureliano
♣ El Capitán ♠
♣ El Capitán ♠





Datum registracije: 15 Mar 2005
Poruke: 9092
Mesto: U zraku, na vodi i ponekad na Zemlji

california.gif
PorukaPostavljena: Sub Jul 31, 2010 3:16 am    Naslov poruke: Na vrh strane Na dno strane

Dance Me to the End of Love

Code:
Intro: Gm

 Cm                Gm              D7            Gm
La la la la la la la la la la la la la la la la la
 Cm                Gm              D7            Gm
La la la la la la la la la la la la la la la la la

 Cm                             Gm
Dance me to your beauty with a burning violin
 Cm                                  Gm
Dance me through the panic till I'm gathered safely in
 Cm                               Gm
Lift me like an olive branch and be my homeward dove
 D7                     Gm
Dance me to the end of love
 D7                     Gm
Dance me to the end of love

Oh let me see your beauty when the witnesses are gone
Let me feel you moving like they do in Babylon
Show me slowly what I only know the limits of
Dance me to the end of love
Dance me to the end of love

F . . . |Gm . . . |F . . . |Gm . . . |

Dance me to the wedding now, dance me on and on
Dance me very tenderly and dance me very long
We're both of us beneath our love, we're both of us above
Dance me to the end of love
Dance me to the end of love

Dance me to the children who are asking to be born
Dance me through the curtains that our kisses have outworn
Raise a tent of shelter now, though every thread is torn
Dance me to the end of love

F . . . |Gm . . . |F . . . |Gm . . . |

La la la la la la la la la la la la la la la la la
La la la la la la la la la la la la la la la la la

Dance me to your beauty with a burning violin
Dance me through the panic till I'm gathered safely in
Touch me with your naked hand or touch me with your glove
Dance me to the end of love
Dance me to the end of love
Dance me to the end of love

______________________________
Druga verzija:

Capo 3rd fret

Intro: Em

 Am                Em              B7            Em
La la la la la la la la la la la la la la la la la
 Am                Em              B7            Em
La la la la la la la la la la la la la la la la la

 Am                             Em
Dance me to your beauty with a burning violin
 Am                                  Em
Dance me through the panic till I'm gathered safely in
 Am                               Em
Lift me like an olive branch and be my homeward dove
 B7                     Em
Dance me to the end of love
 B7                     Em
Dance me to the end of love

Oh let me see your beauty when the witnesses are gone
Let me feel you moving like they do in Babylon
Show me slowly what I only know the

_________________
I tad su došli popovi... Pa topovi... Pa lopovi...
I čitav svet se izobličio...
Ispuzali su grabljivci... Pa lažljivci... Snalažljivci...


 
aureliano
♣ El Capitán ♠
♣ El Capitán ♠





Datum registracije: 15 Mar 2005
Poruke: 9092
Mesto: U zraku, na vodi i ponekad na Zemlji

california.gif
PorukaPostavljena: Sub Jul 31, 2010 3:17 am    Naslov poruke: Na vrh strane Na dno strane

Hallelujah

Code:
Intro: C.. ...|G.. ...|

          C                 Am
Now I've heard there was a secret chord
      C                     Am
That David played, and it pleased the Lord
     F                G              C      G
But you don't really care for music, do you?
    C
It goes like this
     F           G
The fourth, the fifth
     Am              F
The minor fall, the major lift
     G               E7          Am
The baffled king composing Hallelujah
      F           Am          F         C G C    G
Hallelujah, Hallelujah, Hallelujah, Hallelujah

Your faith was strong, but you needed proof
You saw her bathing on the roof
Her beauty and the moonlight overthrew you
She tied you
To a kitchen chair
She broke your throne and she cut your hair
And from your lips she drew the Hallelujah
Hallelujah, Hallelujah, Hallelujah, Hallelujah

You say I took the Name in vain
I don't even know the Name
But if I did, well really, what's it to you?
There's a blaze of light
In every word
It doesn't matter which you heard
The holy or the broken Hallelujah
Hallelujah, Hallelujah, Hallelujah, Hallelujah

I did my best, it wasn't much
I couldn't feel, so I tried to touch
I've told the truth, I didn't come to fool you
And even though
It all went wrong
I'll stand before the Lord of Song
With nothing on my tongue but Hallelujah
Hallelujah, Hallelujah, Hallelujah, Hallelujah
Hallelujah, Hallelujah, Hallelujah, Hallelujah
Hallelujah, Hallelujah, Hallelujah, Hallelujah
Hallelujah, Hallelujah, Hallelujah, Hallelujah
Hallelujah, Hallelujah...

_________________
I tad su došli popovi... Pa topovi... Pa lopovi...
I čitav svet se izobličio...
Ispuzali su grabljivci... Pa lažljivci... Snalažljivci...


 
aureliano
♣ El Capitán ♠
♣ El Capitán ♠





Datum registracije: 15 Mar 2005
Poruke: 9092
Mesto: U zraku, na vodi i ponekad na Zemlji

california.gif
PorukaPostavljena: Sub Jul 31, 2010 3:18 am    Naslov poruke: Na vrh strane Na dno strane

I'm your man

Code:
Intro: Em . . . |. . . . |Bm . . . |. . . . |
       G . . . |F# . . . |Bm . . . |. . . . |

               Em
If you want a lover
                     D
I'll do anything you ask me to
                  Em
And if you want another kind of love
             D
I'll wear a mask for you
               Bm
If you want a partner
         Bm
Take my hand
                     G
Or if you want to strike me down in anger
A
Here I stand
          Bm
I'm your man

If you want a boxer
I will step into the ring for you
And if you want a doctor
I'll examine every inch of you
If you want a driver
Climb inside
Or if you want to take me for a ride
You know you can
I'm your man

         D
Ah, the moon's too bright
      G
The chain's too tight
     A                  D
The beast won't go to sleep
           F#m
I've been running through these promises to you
        Bm
That I made and I could not keep
          F#
Ah but a man never got a woman back
        Bm
Not by begging on his knees
         G
Or I'd crawl to you baby
         F#
And I'd fall at your feet
         G
And I'd howl at your beauty
        F#
Like a dog in heat
          G
And I'd claw at your heart
     E
I'd tear at your sheet
          A
I'd say please, please
          Bm
I'm your man

Em . . . |. . . . |Bm . . . |. . . . |
Em . . . |. . . . |D . . . |. . . . |
Bm . . . |. . . . |G . . . |. . . . |
F# . . . |. . . . |Bm . . . |. . . . |

And if you've got to sleep a moment on the road
I will steer for you
And if you want to work the street alone
I'll disappear for you
If you want a father
For your child
Or only want to walk with me a while
Across the sand
I'm your man

If you want a lover
I'll do anything that you ask me to
And if you want another kind of love
I'll wear a mask for you...

_________________
I tad su došli popovi... Pa topovi... Pa lopovi...
I čitav svet se izobličio...
Ispuzali su grabljivci... Pa lažljivci... Snalažljivci...


 
aureliano
♣ El Capitán ♠
♣ El Capitán ♠





Datum registracije: 15 Mar 2005
Poruke: 9092
Mesto: U zraku, na vodi i ponekad na Zemlji

california.gif
PorukaPostavljena: Sub Jul 31, 2010 3:20 am    Naslov poruke: Na vrh strane Na dno strane

If it be your will (manje poznata ali meni jedna od naj...)

Code:
Intro: Dm.. ...|Bb.. ...|C.. ...|

C              Dm
If it be your will
Bb               Am
That I speak no more
C                 Dm
And my voice be still
F            C
As it was before
Am               G
I will speak no more
    Am           G
I shall abide until
F            C
I am spoken for
       G
If it be your will

If it be your will
If a voice be true
From this broken hill
I will sing to you
From this broken hill
All your praises they shall ring
If it be your will
To let me sing

If it be your will
If there is a choice
Let the rivers fill
Let the hills rejoice
Let your mercy spill
On all these burning hearts in hell
If it be your will
To make us well

And draw us near
Oh bind us tight
All your children here
In their rags of light
In our rags of light
All dressed to kill
And end this night
If it be your will
               C
If it be your will

_________________
I tad su došli popovi... Pa topovi... Pa lopovi...
I čitav svet se izobličio...
Ispuzali su grabljivci... Pa lažljivci... Snalažljivci...


 
aureliano
♣ El Capitán ♠
♣ El Capitán ♠





Datum registracije: 15 Mar 2005
Poruke: 9092
Mesto: U zraku, na vodi i ponekad na Zemlji

california.gif
PorukaPostavljena: Sub Jul 31, 2010 3:22 am    Naslov poruke: Na vrh strane Na dno strane

The letters

Code:
Chords:

D7sus4:       x57585
D/a:          557775
D#maj7:       x68786
D#7sus4:      x68696
D#/a#:        668886
Emaj7:        x79897

Intro: Gm . . . |D7sus4 . D7 .|Gm . . . |Dm7 . D/a . |

     Gm                 D7sus4   D7
You never liked to get
     Gm                   Dm7   D/a
The letters that I sent.
     Gm                      D7sus4   D7
But now you've got the gist
            D#maj7         D7sus4  D
Of what my letters meant.

        Gm                  D7sus4   D7
You're reading them again,
    Gm                     Dm7   D/a
The ones you didn't burn.
      Gm                      D7sus4   D7
You press them to your lips,
         D#maj7     D7sus4  D
My pages of concern.

Cm7                     Gm
I said there'd been a flood.
Cm7                     Gm
I said there's nothing left.
F                        D#
I hoped that you would come.
                  D
I gave you my address.

       G#m              D#7sus4   D#7
Your story was so long,
      G#m                 D#m7   D#/a#
The plot was so intense,
G#m                         D#7sus4   D#7
It took you years to cross
              Emaj7       D#7sus4  D#
The lines of self-defense.

G#m                        D#7sus4   D#7
The wounded forms appear:
     G#m                    D#m7   D#/a#
The loss, the full extent;
G#m                     D#7sus4   D#7
And simple kindness here,
         Emaj7            D#7sus4  D#
The solitude of strength.

C#m7                    G#m
I said there'd been a flood.
C#m7                    G#m
I said there's nothing left.
F#                       E
I hoped that you would come.
                  D#7sus4  D#
I gave you my address.

     Gm                 D7sus4   D7
You walk into my room.
      Gm                    Dm7   D/a
You stand there at my desk,
  Gm                 D7sus4   D7
Begin your letter to
               Gm          Dm7   D/a
The one who's coming next.
    D#               D7
(Begin your letter to)
D#maj7  D7                        Gm
(Oooooooo... the one who's coming next)

               Spoken:
Gm . . . |D7sus4 . D7 . |     (You never liked to get the letters that I sent.)
Gm . . . |Dm7 . D/a . |       (But now you've got the gist of what my letters meant.)
Gm . . . |D7sus4 . D7 . |     (You're reading them again, the ones you didn't burn.)
D#maj7 . . . |D7sus4 . D7 .|  (You press them to your lips, my pages of concern.)

Gm . . . |D7sus4 . D7 . |     (I said there'd been a flood. I said there's nothing left.)
Gm . . . |Dm7 . D/a . |       (I hoped that you would come. I gave you my address.)
Gm . . . |D7sus4 . D7 . |     (Your story was so long, the plot was so intense,)
D#maj7 . . . |D7sus4 . D7 .|  (It took you years to cross the lines of self-defense.)

Gm . . . |D7sus4 . D7 . |     (The wounded forms appear: the loss, the full extent;)
Gm...                         (And simple kindness here, the solitude of strength.)

_________________
I tad su došli popovi... Pa topovi... Pa lopovi...
I čitav svet se izobličio...
Ispuzali su grabljivci... Pa lažljivci... Snalažljivci...


 
Prikaz poruka:   
Upišite novu temu   Odgovorite na temu    www.domaci.de Forum Indeks -> ~ Naša MP3 riznica ~ -> ~ Akordi i tablature ~ -> Leonard Cohen Vreme je podešeno za GMT + 1 sat
Strana 1 od 1

 
Pređite u:  
Vi ne možete otvarati nove teme u ovom forumu
Vi ne možete odgovarati na teme u ovom forumu
Vi ne možete menjati Vaše poruke u ovom forumu
Vi ne možete brisati Vaše poruke u ovom forumu
Vi ne možete glasati u anketama u ovom forumu
Vi ne možete postavljati fajlove u ovom forumu
Vi ne možete preuzeti fajlove sa ovog foruma





- Burek Forum - Doček Nove 2018. godine - Venčanja, svadbe - Proslave - TipoTravel - Kuda večeras -

Bookmark to: Twitter Bookmark to: Facebook Bookmark to: Digg Bookmark to: Del.icio.us Bookmark to: StumbleUpon