www.domaci.de Forum Indeks Home
Portal • Forum • Novi upisi • Pretraga • Link do nas • Domaći filmovi • Lista korisnika • Tim sajta • Proverite privatne poruke • Prijava • Registracija
Pravilnik • FAQ • Profil • Favorites • Galerija slika • Top lista • Download MP3 • MP3 razno • Spotovi • Noviteti 2013 • Muzički noviteti 2014

maNga
Upišite novu temu   Odgovorite na temu    www.domaci.de Forum Indeks -> ~ Naša MP3 riznica ~ -> ~ Akordi i tablature ~
::  
Autor Poruka
coco_bill
Zli carobnjak-lingvista
Zli carobnjak-lingvista



Godine: 38

Datum registracije: 22 Mar 2006
Poruke: 33433
Mesto: Novi Sad

serbia.gif
PorukaPostavljena: Sub Jul 31, 2010 11:24 pm    Naslov poruke: maNga Na vrh strane Na dno strane

Beni Benimle Bırak

Em D Em
Al bu dünya, al senin olsun
Em D Em
Benim hiç gözüm yok, hepsi senin olsun
Em Am G Am Em
Ama son bir dileğim var senden şu gaybana dünyada
Am G Am
Varını, yoğunu al, hepsini al da

Em D C Em
Beni benimle bırak
Em D Am Em
Beni benimle bu cehennemde
Em D G Am
Ruhum senden çok uzak
Em D C
Yabancıyım senin cennetine

Em D Em
Al bu dünya, al senin olsun
Em D Em
Ne olur benden artik uzak dur
Em Am G Am Em
Bi günahim varsa işlediğim, o benim borcumdur
Am G Am
Sen varını yoğunu al , hepsini al da

Em D C Em
Beni benimle bırak
Em D Am Em
Beni benimle bu cehennemde
Em D G Am
Ruhum senden çok uzak
Em D C
Yabancıyım senin cennetine

Instrumental posle svakog stiha u refrenu ide u Em i trebalo bi da bude ovako otprilike (bar koliko sam ja uhvatio):
Code:
E||---0-----0--------|
B||------0-----0-----|
G||------------------|
D||---------------2--|



_________________

ı¤¤¤¤¤¤¤¤ı••••••••••••ı
 
coco_bill
Zli carobnjak-lingvista
Zli carobnjak-lingvista



Godine: 38

Datum registracije: 22 Mar 2006
Poruke: 33433
Mesto: Novi Sad

serbia.gif
PorukaPostavljena: Ned Maj 20, 2012 1:03 am    Naslov poruke: Re: maNga Na vrh strane Na dno strane

Her aşk ölümü tadacak

Uvod:
Code:
E|-------------------6-----------------------5---------------------------4---
B|--7----7----7--------7---6----6----6---------6---5-----5-----5-----------5-
G|----8----8----8------------7----7----7--------------6-----6----6-----------
D|---------------------------------------------------------------------------
A|---------------------------------------------------------------------------
E|---------------------------------------------------------------------------


E|-------------------------3-------------------4-----
B|----4-----4-----4---------4---5----5----5------5---
G|------5-----5-----5--------------6----6----6-------
D|---------------------------------------------------
A|---------------------------------------------------
E|---------------------------------------------------


E|----------------------3-------------------------2------|
B|---4-----4----4--------4---3-----3----3--------3-------|
G|-------5----5-----5------------4----4-----4------------|
D|-------------------------------------------------------|
A|-------------------------------------------------------|
E|-------------------------------------------------------|

e|-------------------------------------|
B|---5--3-------3----------------------|
G|---------5--4----5--4----1---2-------|
D|-------------------------------------|
A|-------------------------------------|
E|-------------------------------------|

_________________

ı¤¤¤¤¤¤¤¤ı••••••••••••ı
 
Prikaz poruka:   
Upišite novu temu   Odgovorite na temu    www.domaci.de Forum Indeks -> ~ Naša MP3 riznica ~ -> ~ Akordi i tablature ~ -> maNga Vreme je podešeno za GMT + 1 sat
Strana 1 od 1

 
Pređite u:  
Vi ne možete otvarati nove teme u ovom forumu
Vi ne možete odgovarati na teme u ovom forumu
Vi ne možete menjati Vaše poruke u ovom forumu
Vi ne možete brisati Vaše poruke u ovom forumu
Vi ne možete glasati u anketama u ovom forumu
Vi ne možete postavljati fajlove u ovom forumu
Vi ne možete preuzeti fajlove sa ovog foruma





- Burek Forum - Doček Nove 2018. godine - Venčanja, svadbe - Proslave - TipoTravel - Kuda večeras -

Bookmark to: Twitter Bookmark to: Facebook Bookmark to: Digg Bookmark to: Del.icio.us Bookmark to: StumbleUpon