www.domaci.de Forum Indeks Home
Portal • Forum • Novi upisi • Pretraga • Link do nas • Domaći filmovi • Lista korisnika • Tim sajta • Proverite privatne poruke • Prijava • Registracija
Pravilnik • FAQ • Profil • Favorites • Galerija slika • Top lista • Download MP3 • MP3 razno • Spotovi • Noviteti 2013 • Muzički noviteti 2014

Van Gogh
Upišite novu temu   Odgovorite na temu    www.domaci.de Forum Indeks -> ~ Naša MP3 riznica ~ -> ~ Akordi i tablature ~
::  
Autor Poruka
coco_bill
Zli carobnjak-lingvista
Zli carobnjak-lingvista



Godine: 37

Datum registracije: 22 Mar 2006
Poruke: 33433
Mesto: Novi Sad

serbia.gif
PorukaPostavljena: Ned Jun 10, 2012 12:08 am    Naslov poruke: Van Gogh Na vrh strane Na dno strane

Klatno

Code:
B5


B5              A5            G5               F#5
Mi sve smo probali i sve prodali za samo jedan dan

  B5           A5            D5        F#5
I sva naša nadanja su izbledela od čekanja


   |       |       |       |          |       |       |       |
E----------------------------------|----------------------------------|
B----------------------------------|----------------------------------|
G----------------------------------|----------------------------------|
D----------------------------------|----------------------------------| 2X
A--------------------------2-------|--------------------------2-------|
E--2-2-0-2-5---0-2---2-0-2-----5---|--2-2-0-2-5---0-2---2-0-2-----0---|

       B5                         A5
Koliko puta sam zamišljao kako me oblak nekud odneo

        G5              F#5
Negde daleko, u zaborav, više mi ništa ne značiš

B5             A5         D5   F#5
While my guitar gently weeeeeeps

D5
Klati se klatno, zlato je zlato,
(Sve, sve ove)

A5
Bleda je senka lepa i slepa
(godine ti si)

E5
Spava li bajna? Da li je tajna
(tu i)

G5             A5
Kako se klatno klatilo zlatno?
(čekaš da      nađem te)

D5
Klati se klatno, zlato je zlato,
(Znaš da ljubav)

A5
Bleda je senka lepa i slepa
(slepa je. Kaži)

E5
Spava li bajna? Da li je tajna
(mi)

G5             A5
Kako se klatno klatilo zlatno
(kako da       čuvam te)

solo
    |   |   |     |       |   |   |   |     |   |   |    |      |   |   |   |
E----------------------|------------------|------------------|----------------|
B-------------------10-|-10--s5---------5-|-7-----------10---|-10---9---------|
G--11---------11-12----|--------------7---|------------------|----------------|
D----------------------|------------------|------------------|----------------|
A----------------------|------------------|------------------|----------------|
E----------------------|------------------|------------------|----------------|

    |   |   |     |       |   |   |   |     |   |   |    |      |   |   |    |
E----------------------|------------------|------------------|-----------------|
B-------------------10-|-10--s5---------5-|-7-----------10---|-10---9-------12-|
G--11---------11-12----|--------------7---|------------------|-----------------|
D----------------------|------------------|------------------|-----------------|
A----------------------|------------------|------------------|-----------------|
E----------------------|------------------|------------------|-----------------|


    |    |   |   |       |   |   |   |      |   |   |   |       |   |   |   |
E--------------------|-------------------|------------------|-------------------|
B--12---11-----------|-(11)--------------|-12---------------|-(12)--------------|
G--------------------|-------------------|------------------|-------------------|
D--------------------|-------------------|------------------|-------------------|
A--------------------|-------------------|------------------|-------------------|
E--------------------|-------------------|------------------|-------------------|

I ovo sve, tako težak je jedan pokušaj za samo jedan dan
While my guitar gently weeps

Klati se klatno, zlato je zlato   (Sve, sve ove)
Bleda je senka, lepa i slepa      (godine ti si)
Spava li bajna, da li je tajna    (tu i)
Kako se klatno zlatilo zlatno     (čekaš da nađem te)

Klati se klatno, zlato je zlato   (Znaš da ljubav)
Bleda je senka, lepa i slepa      (slepa je kaži)
Spava li bajna, da li je tajna    (mi)
Kako se klatno zlatilo zlatno     (kako da čuvam te)

   |       |       |       |          |       |       |       |
E----------------------------------|----------------------------------|
B----------------------------------|----------------------------------|
G----------------------------------|----------------------------------|
D----------------------------------|----------------------------------| 2X
A--------------------------2-------|--------------------------2-------|
E--2-2-0-2-5---0-2---2-0-2-----5---|--2-2-0-2-5---0-2---2-0-2-----0---|

F#5 F#5 F#5 G5 G5 G5

Rifovi:
D5:  x 5 7 7 x x
E5:  x 7 9 9 x x
F#5: 2 4 4 x x x
G5:  3 5 5 x x x
A5:  5 7 7 x x x
B5:  7 9 9 x x x



_________________

ı¤¤¤¤¤¤¤¤ı••••••••••••ı
 
coco_bill
Zli carobnjak-lingvista
Zli carobnjak-lingvista



Godine: 37

Datum registracije: 22 Mar 2006
Poruke: 33433
Mesto: Novi Sad

serbia.gif
PorukaPostavljena: Ned Jun 10, 2012 12:11 am    Naslov poruke: Na vrh strane Na dno strane

Brod od papira

Code:
tema bass
G||---------------------------------------------------------|
D||----------------------------------------------------0----|
A||--0--2--2------2----2---------2--2-------2-----2--2------|
E||-------------2----2-------2-----------2-----2---------2--|



Bm
Kazu pustas,
Em Bm
brodove rekom papirne.
Em
Na svakom pise,
Bm
cekam, a nema te.
A G
Bez tebe ne smem, ja ne umem
Bm
disati,smejati se,hodati.

ref.
D A
Kada odes onda ucini to,
G A
da tako ne izgleda
D A Em G
kada oooodes od meeeene,
Bm
ucini samo to.

_________________

ı¤¤¤¤¤¤¤¤ı••••••••••••ı
 
coco_bill
Zli carobnjak-lingvista
Zli carobnjak-lingvista



Godine: 37

Datum registracije: 22 Mar 2006
Poruke: 33433
Mesto: Novi Sad

serbia.gif
PorukaPostavljena: Ned Jun 10, 2012 12:21 am    Naslov poruke: Na vrh strane Na dno strane

Delfin

Code:
D              C
Mozda te sutra imati necu
    G                 
ali danas te imam
             D
za ceo zivot svoj.
D                     C
Vise se nikad, necemo stici
      G                D
nismo jedno u kuci ljubavi.


predrefren
 
Hm          A
Molim za toplinu
G               A
secanja vode sa dubokog dna
Hm          A
od stida ti cuvaj je
G                       A
pod kozom znas da nemam nikoga.


refren

     Dm     A
Osim mene a ha,
     F        G
i milion tona teskog sunca
     Dm     A
osim tebe i mene
F               G
ova zemlja nema nikoga, a ha.

_________________

ı¤¤¤¤¤¤¤¤ı••••••••••••ı
 
coco_bill
Zli carobnjak-lingvista
Zli carobnjak-lingvista



Godine: 37

Datum registracije: 22 Mar 2006
Poruke: 33433
Mesto: Novi Sad

serbia.gif
PorukaPostavljena: Ned Jun 10, 2012 12:22 am    Naslov poruke: Na vrh strane Na dno strane

Ludo luda

Code:
Am           
Devojka sedi kraj mora sama
i tiho sebi govori
F#m
ah, mili Boze, da li ima
ima l' sto sire od mora


Gm        F#     
Ludo luda, mlada si, devojko                         
riba iz vode joj govori
Hm          F#m
ima, luda ludice, devojko
G                  Am
sire je nebo od mora mog


Devojka sedi u polju sama
i tuzno sebi govori
ah, mili Boze moj, imas li odgovor
sta je to draze od, od brata mog

Ludo luda, mlada si, devojko
ptica iz polja joj govori
ima, luda ludice, devojko
drazi je dragi od brata tvog

Devojka sedi kraj ognja sama
i besno sebi govori
ah, mili Boze, da li ima
ima l' sto brze od konja

Ludo luda, mlada si, devojko
plamen iz ognja joj govori
ima, luda ludice, devojko
brze su oci od konja tvog

Ludo luda, mlada si, devojko
sladji je secer od meda svog
ima, luda ludice, devojko
drazi je dragi od brata tvog
moja si, moja si

_________________

ı¤¤¤¤¤¤¤¤ı••••••••••••ı
 
coco_bill
Zli carobnjak-lingvista
Zli carobnjak-lingvista



Godine: 37

Datum registracije: 22 Mar 2006
Poruke: 33433
Mesto: Novi Sad

serbia.gif
PorukaPostavljena: Ned Jun 10, 2012 12:23 am    Naslov poruke: Na vrh strane Na dno strane

Polje snova

Code:
B               A   E
Samo sklopi oci tonemo
poljem snova toplim, daleko.
Zna, da mogu zna da bi
od sebe pustio je.

predref.

Bm                 
Mozda bas sad je
G         A
u mislima nekim.
Bm       G A
Samo glad,
Bm            G           
njeni su dani mastilo
    A          E
bez boje nadanja.

ref.
                   
Divlje su oci zene,
Bm  G          A         
Kao pustinjska zedj,
Bm
ona zna da krade
G         A         
poslednju kap sa usana
Bm    G             A         
koje duvaju u jedra ljubavi.

_________________

ı¤¤¤¤¤¤¤¤ı••••••••••••ı
 
coco_bill
Zli carobnjak-lingvista
Zli carobnjak-lingvista



Godine: 37

Datum registracije: 22 Mar 2006
Poruke: 33433
Mesto: Novi Sad

serbia.gif
PorukaPostavljena: Ned Jun 10, 2012 12:24 am    Naslov poruke: Na vrh strane Na dno strane

Spisak razloga

Code:
Solo:
Dm      A#       F       C        Dm      A#    F  A#    F     C
-----------------------------------------------------------------
-----------------------------------------------------------------
--------3-3--------------5-5--------------3-3--------------------
----3-------2-3------3-------2-3------3-------2-3--3--3--------5-
5-5---5----------5-5---5----------5-5---5----------1--1--3--3--3-
---------------------------------------------------------1--1----
1STROFA
Dm                A
Bilo je dana kada videla nisi,
C                A#
pored mene svoje korake
A#                 F
Bilo je dana ti si verovala,
   A
da ja sam taj ko te najbolje zna
2STROFA
Dm                F
I tih dana sam te cuvao
C                   A#
Na golim ledjima te nosio
A#                  F
Telom od nevolja te branio
F         A
Dok ti si spavala, ja sam plakao

REFREN:2x
A#      F             C       Dm
Nisi ti dobra, kol’ko loš sam ja
A#      F            C    Dm
Negde postoji spisak razloga
A#    F          C   Dm
Da se osecam k’o utesna
A
nagrada za tvoje poraze
3STROFA
Dm                A
Bilo je dana kada video nisam,
C                A#
pored sebe tvoje korake
A#      F
U oluji pescanog sata,
A
mi smo se polako gubili

2STROFA
REFREN:2X
2Solo:
A#         F          C   Dm     A#         F        A
------------------------5---------------------5-5----9-
--6-----6----6-----6--8---6-5------6-----6--8-----6--10
5---7-5----5---7-5------------7--5---7-5-------------9-
-------------------------------------------------------
-------------------------------------------------------
-------------------------------------------------------
A#         F          C   Dm     A#         F        A
------------------------5---------------------5-5------
--6-----6----6-----6--8---6-5-6----6-----6--8-----6--8-
5---7-5----5---7-5---------------5---7-5---------------
-------------------------------------------------------
-------------------------------------------------------
-------------------------------------------------------
REFREN:
1Solo:

_________________

ı¤¤¤¤¤¤¤¤ı••••••••••••ı
 
coco_bill
Zli carobnjak-lingvista
Zli carobnjak-lingvista



Godine: 37

Datum registracije: 22 Mar 2006
Poruke: 33433
Mesto: Novi Sad

serbia.gif
PorukaPostavljena: Ned Jun 10, 2012 12:26 am    Naslov poruke: Na vrh strane Na dno strane

Zamisli

Citat:
Hm
Nekako zbunjeno
F#m
cekamo dane da odletimo,
Hm
tamo gde stize se kasnije,
F#m
gde neko ceka na nas.

ref.

G A D
Ako ti jave nekad,
G A D
da vise nema me,
G A D
ako ti jave nekad,
G D
mozda mene
G D
ni bilo nije
G A Hm
zamisli me.

_________________

ı¤¤¤¤¤¤¤¤ı••••••••••••ı
 
coco_bill
Zli carobnjak-lingvista
Zli carobnjak-lingvista



Godine: 37

Datum registracije: 22 Mar 2006
Poruke: 33433
Mesto: Novi Sad

serbia.gif
PorukaPostavljena: Ned Jun 10, 2012 12:28 am    Naslov poruke: Na vrh strane Na dno strane

Zamisli

Code:
A5 F5 G5
e-------------------------------------
h-------------------------------------
g-------------------------------------
d--7-7-7---3-3-3---5-5-5-5-5-5-5-5----
a--7-7-7---3-3-3---5-5-5-5-5-5-5-5----
e--5-5-5-0-1-1-1-0-3-3-3-3-3-3-3-3-0--

A5,F5,G5 x2

A5 F5 G5
Vise nisam na zemlji,
A5 F5 G5
U meni rusi se sve
A5 F5 G5
Toliko toga slomilo je
A5 F5 G5
Poslednju zelju da shvatim da smo ljudi.

A5 F5 G5
Vise nisam na zemlji,
A5 F5 G5
Evo,pustam telo da leti visoko,
A5 F5 G5
Previse umoran da gledam
A5 F5 G5
Ovu igru koju zovemo strah.

A5 F5
Ne boli me,
G5
Mama,
A5 F5 G5
Ovaj poslednji dan.
A5 F5
Ne,ne,ne boli me,
G5
Mama,
A5 F5 G5
Ja dalje putujem sam.

C1
A5,F5.G5 uz e-----0-----
h-------1---
g--0-2------

C2
A5,F5,G5 uz e-----0-----
h------1--0-
g--0-2------ sve x2

A5 F5 G5
Mama,
A5 F5 G5
Da li ovo je kraj o kom si pricala,
A5 F5 G5
Vec vidim daleki svet,spava,
A5 F5 G5
Molim sunce da ne probudi ga,

A5 F5
Ne boli me,
G5
Mama,
A5 F5 G5
Ovaj poslednji dan.
A5 F5
Ne,ne,ne boli me,
G5
Mama,
A5 F5 G5
Ja dalje putujem sam.
A5 F5 G5 uz C1
Mama ne.
A5 F5 G5 uz C1
Mama ne.

A5 F5 G5
Stigao sam.
A5 F5 G5
Svi ovde lazu da na zemlji je raj,
A5 F5 G5
Takav ne zelim,
A5 F5 G5
Nisi me ucila da smejem se sam


A5 F5
Ne boli me,
G5
Mama,
A5 F5 G5
Ovaj poslednji dan.
A5 F5 G5
Mama,ne boli me,
A5 F5 G5
Ja dalje,dalje putujem sam.
A5 F5 G5
Mama ne.
A5 F5 G5 uz C1
Mama ne.
A5 F5 G5 uz C1
Mama ne.
A5 F5 G5 uz C1
Mama ne.

A5 F5
Vise ne letim,
G5
Mama,
A5 F5 G5
Ovde nisam sam.
A5 F5
Vise ne letim,
G5
Mama,
A5 F5 G5
Plivam morem koje zove se kraj.

A5 F5 G5
Vise ne letim,
A5 F5 G5
Ja ovde,ovde nisam sam.
A5 F5
Vise ne letim,
G5
Mama ne,
A5 F5 G5
Plivam morem koje zove se kraj.
A5 F5 G5
Vise ne letim
A5 F5 G5
Kraj
A5 F5 G5
Mama kraj
A5 F5 G5
Mama ne
A5 F5 G5
Ovde je kraj

_________________

ı¤¤¤¤¤¤¤¤ı••••••••••••ı
 
Prikaz poruka:   
Upišite novu temu   Odgovorite na temu    www.domaci.de Forum Indeks -> ~ Naša MP3 riznica ~ -> ~ Akordi i tablature ~ -> Van Gogh Vreme je podešeno za GMT + 1 sat
Strana 1 od 1

 
Pređite u:  
Vi ne možete otvarati nove teme u ovom forumu
Vi ne možete odgovarati na teme u ovom forumu
Vi ne možete menjati Vaše poruke u ovom forumu
Vi ne možete brisati Vaše poruke u ovom forumu
Vi ne možete glasati u anketama u ovom forumu
Vi ne možete postavljati fajlove u ovom forumu
Vi ne možete preuzeti fajlove sa ovog foruma





- Burek Forum - Doček Nove 2018. godine - Venčanja, svadbe - Proslave - TipoTravel - Kuda večeras -

Bookmark to: Twitter Bookmark to: Facebook Bookmark to: Digg Bookmark to: Del.icio.us Bookmark to: StumbleUpon