www.domaci.de Forum Indeks Home
Portal • Forum • Novi upisi • Pretraga • Link do nas • Domaći filmovi • Lista korisnika • Tim sajta • Proverite privatne poruke • Prijava • Registracija
Pravilnik • FAQ • Profil • Favorites • Galerija slika • Top lista • Download MP3 • MP3 razno • Spotovi • Noviteti 2013 • Muzički noviteti 2014

Orthodox Celts
Upišite novu temu   Odgovorite na temu    www.domaci.de Forum Indeks -> ~ Naša MP3 riznica ~ -> ~ Akordi i tablature ~
::  
Autor Poruka
coco_bill
Zli carobnjak-lingvista
Zli carobnjak-lingvista



Godine: 38

Datum registracije: 22 Mar 2006
Poruke: 33433
Mesto: Novi Sad

serbia.gif
PorukaPostavljena: Pet Apr 30, 2010 11:32 pm    Naslov poruke: Orthodox Celts Na vrh strane Na dno strane

The Celts strike again

Code:
Transkripcija: Aca Urosevic


   Dm
 {-------------------------------alternate-----------------------------------}
E-----------------------------------------------------------------------------|
H-----------------------------------------------------------------------------|
G-----7-9-10^9-7----7-------7--------7--9/\-7-9-10^9-7----7--------7--------7-|
D--7-------------10--7-9-10---10-9-7-------------------10---7-9-10---10-9-7---|
A-----------------------------------------------------------------------------|
E-----------------------------------------------------------------------------|

   Dm            C        B          C        Dm           C        B       C    Dm   
 {-----------------------------------alternate-------------------------------------}
E-----------------------------------------------------------------------------------|
H----------------8-----------------------------------------8------------------------|
G---7^9^7----7-9---10-9-7-10-10-9-10-7--------7^9^7----7-9---10-9-7-9^10-10-7----7--|
D--7------10---------------------------10-7--7--------------------------------10----|
A-----------------------------------------------------------------------------------|
E-----------------------------------------------------------------------------------|
                                                                         ^== ovo 2x

Refren:
   Dm            Am         F          C
 {----------------alternate----------------------}
E-------------------------------------------------|
H-------------------------------------------------|
G----7-7-7-----7-10^9---7---7-7-7----7------------|
D--7--------10-------10---7-------10---10^7----7--|
A-------------------------------------------10----|
E-------------------------------------------------|

     Dm         Am            F        C     B
 {---------------------alternate----------------------}
E------------------------------------------------------|
H--------------------------------10------8-------------|
G----7-7-7----7-10^9----7--9--10----10-9---9-7---------|
D--7-------10--------10-----------------------10----7--|
A------------------------------------------------10----|
E------------------------------------------------------|


Objasnjenje:
^- hammer on ili pull off
/\- bend/release


Izvor: Akordi za gitaru



_________________

ı¤¤¤¤¤¤¤¤ı••••••••••••ı
 
coco_bill
Zli carobnjak-lingvista
Zli carobnjak-lingvista



Godine: 38

Datum registracije: 22 Mar 2006
Poruke: 33433
Mesto: Novi Sad

serbia.gif
PorukaPostavljena: Pet Apr 30, 2010 11:45 pm    Naslov poruke: Re: Orthodox Celts Na vrh strane Na dno strane

Star of the county Down

Transkripcija: Aca Urosevic - Aca_Urosevic@yahoo.com


Uvod(4x):
Am C Dsus2
E--------------------------------|
H--------1------------------3----|
G------2---2---0------0---2---2--|
D----2-------2------2---0--------|
A--0--------------3--------------|
E--------------------------------|

Ova sema Am C Dsus2 se ponovi u pratnji 3 puta, a
cetvrti put uz malu izmenu:
Am C Dsus2
E------------------------------0--------------0----|
H--------1-------------------3---3---3------3------|
G------2---2---0------0----2-------2------2--------|
D----2-------2------2----0-------------0-----------|
A--0--------------3--------------------------------|
E--------------------------------------------------|

Posle se ponavlja ista sema, samo sto se sviraju puni akordi.

Ref: CF4x, CF4x, CF4x, CF3x Am G F

Solo(ne garantujem 100% tacnost, ali zvuci):
Dm F G Dm F G
{------------------------------------alternate------------------------------------}
E--------------------------------------------|--------------------------------------|
H--6^5---5-----------------------------------|-5-5^6^5---5---------------8-8^6-5----|
G------7---7-5-5^7-5---4-4s5-5-5s4-------5---|---------7---7-5-7-5---4s5---------7--|
D--------------------7-------------7-5^7---7-|---------------------7----------------|
A--------------------------------------------|--------------------------------------|
E--------------------------------------------|--------------------------------------|
Dm F G
{-------------------alternate---------------------}
E--------5------------------------------------------|
H--5-6-8---8-6-8-6-8-6-5-6-5-6-8-5-8---8-6-8-5-8--8-|
G------------------------------------7----------7---|
D---------------------------------------------------|
A---------------------------------------------------|
E---------------------------------------------------|
Dm F G
{-------------------alternate--------------------------}
E--------------------------------------------------------|
H----------------5-6-5-----------------------------------|
G--7-7-7^5---5^7-------5-------5--------7-------7--------|
D----------7-------------3-3-3---3-3-3----5-5-5---5-5-5--|
A--------------------------------------------------------|
E--------------------------------------------------------|

zatim se vraca u osnovni tonalitet:
Am C Dsus2 Am C Dsus2
E------------|-------------|
H------------|-------------|
G--s14~~~~~--|--7-7s9~~~~~-|
D------------|-------------|
A------------|-------------|
E------------|-------------|

(na kraju pesme se samo ponavlja deo solaze u Dm F G i tako u fade out...)

Objasnjenje:
s-slide
^-hammer on ili pull off
~-vibrato



***VERZIJA 2***

Transkripcija: Zarko Cvetojevic - anstain@ptt.yu


Ovo je pocetak pesme meni zvuci ok
a C
E||--------------------------------------------|
B||----------1--------------------------3------|
G||-------2-------2----2------0-------0----0---|
D||-----2-----------2-------2----0-------------|
A||--0-------------------3---------------------|
E||--------------------------------------------|

--------------------------------------------|
----------1--------------------------3------|
-------2-------2----2------0-------0----0---|
-----2-----------2-------2----0-------------|
--0-------------------3---------------------|
--------------------------------------------|

------------------------------------------------0----------|
----------1--------------------------3-------3-------3-----|
-------2-------2----2------0-------0----0---------------0--|
-----2-----------2-------2----0----------------------------|
--0-------------------3------------------------------------|
-----------------------------------------------------------|




Izvor

_________________

ı¤¤¤¤¤¤¤¤ı••••••••••••ı
 
Prikaz poruka:   
Upišite novu temu   Odgovorite na temu    www.domaci.de Forum Indeks -> ~ Naša MP3 riznica ~ -> ~ Akordi i tablature ~ -> Orthodox Celts Vreme je podešeno za GMT + 1 sat
Strana 1 od 1

 
Pređite u:  
Vi ne možete otvarati nove teme u ovom forumu
Vi ne možete odgovarati na teme u ovom forumu
Vi ne možete menjati Vaše poruke u ovom forumu
Vi ne možete brisati Vaše poruke u ovom forumu
Vi ne možete glasati u anketama u ovom forumu
Vi ne možete postavljati fajlove u ovom forumu
Vi ne možete preuzeti fajlove sa ovog foruma





- Burek Forum - Doček Nove 2018. godine - Venčanja, svadbe - Proslave - TipoTravel - Kuda večeras -

Bookmark to: Twitter Bookmark to: Facebook Bookmark to: Digg Bookmark to: Del.icio.us Bookmark to: StumbleUpon