www.domaci.de Forum Indeks Home
Portal • Forum • Novi upisi • Pretraga • Link do nas • Domaći filmovi • Lista korisnika • Tim sajta • Proverite privatne poruke • Prijava • Registracija
Pravilnik • FAQ • Profil • Favorites • Galerija slika • Top lista • Download MP3 • MP3 razno • Spotovi • Noviteti 2013 • Muzički noviteti 2014

Dragan Kojić - Keba
Upišite novu temu   Odgovorite na temu    www.domaci.de Forum Indeks -> ~ Naša MP3 riznica ~ -> ~ Akordi i tablature ~
::  
Autor Poruka
beckham011
Upućeni član
Upućeni član





Datum registracije: 22 Sep 2008
Poruke: 417
Mesto: планета Земља

serbia.gif
PorukaPostavljena: Pon Avg 09, 2010 10:19 pm    Naslov poruke: Dragan Kojić - Keba Na vrh strane Na dno strane

Dragan Kojic - Keba – Bre Gidi Dzanum

Code:
Uvod (2x):
   A                                  dm               E7        A
E|-----9---9------|-9---12---9----9-|-10--10-12--10-|-10--10-12--9--|
H|------------12--|------------12---|---------------|---------------|
G|-9-9--9---------|---9----9--------|---------------|---------------|
D|----------------|-----------------|---------------|---------------|
A|----------------|-----------------|---------------|---------------|
E|----------------|-----------------|---------------|---------------|

   A                                  dm         E7          A
E|-----9----9-----|-9---12---9----9-|-10--10-12--9---------|--------|
H|-------------12-|------------12---|---------------12--10-|-10-----|
G|-9-9---9--------|---9----9--------|----------------------|--------|
D|----------------|-----------------|----------------------|--------|
A|----------------|-----------------|----------------------|--------|
E|----------------|-----------------|----------------------|--------|


A              dm  A
Ne slusaj lazi o meni,
                 E(E7) A
Jedno smo drugom sudjeni.

Ref.
E        A       D       A
Bre gidi dzanum, bre gidi dzanum
hm D    A
Za dusmani
E         A    D    A
Uvek si bila u srcu mom,
hm   D(E7)A
Tu i ostani.

   A                                  dm               E7        A
E|-----9----9-----|-9---12---9----9-|-10--10-12--10-|-10--10-12--9--|
H|-------------12-|------------12---|---------------|---------------|
G|-9-9---9--------|---9----9--------|---------------|---------------|
D|----------------|-----------------|---------------|---------------|
A|----------------|-----------------|---------------|---------------|
E|----------------|-----------------|---------------|---------------|

   A                                  dm         E7          A
E|-----9----9-----|-9---12---9----9-|-10--10-12--9---------|--------|
H|-------------12-|------------12---|---------------12--10-|-10-----|
G|-9-9---9--------|---9----9--------|----------------------|--------|
D|----------------|-----------------|----------------------|--------|
A|----------------|-----------------|----------------------|--------|
E|----------------|-----------------|----------------------|--------|

A               dm   A
Ti si mi prva i jedina,
              E(E7) A
Ti si za mene rodjena

Ref.
E        A       D       A
Bre gidi dzanum, bre gidi dzanum
hm D    A
Za dusmani
E         A    D    A
Uvek si bila u srcu mom,
hm   D(E7)A
Tu i ostani.

Prelaz* (2x):
   (rumba)
   A                      A   G  E7
E|-5------|--------|------5-|-3---x---|
H|-5------|--------|------5-|-3---5---|
G|-6------|--------|------6-|-4---7---|
D|-7------|--------|------7-|-5---6---|
A|-7------|--------|------7-|-5---7---|
E|-5------|--------|------5-|-3---x---|

   A                                  dm               E7        A
E|-----9---9------|-9---12---9----9-|-10--10-12--10-|-10--10-12--9--|
H|-------------12-|------------12---|---------------|---------------|
G|-9-9---9--------|---9----9--------|---------------|---------------|
D|----------------|-----------------|---------------|---------------|
A|----------------|-----------------|---------------|---------------|
E|----------------|-----------------|---------------|---------------|

   A                                  dm         E7          A     
E|-----9----9-----|-9---12---9----9-|-10--10-12--9---------|--------|
H|-------------12-|------------12---|---------------12--10-|-10-----|
G|-9-9---9--------|---9----9--------|----------------------|--------|
D|----------------|-----------------|----------------------|--------|
A|----------------|-----------------|----------------------|--------|
E|----------------|-----------------|----------------------|--------|

Ref.
E        A       D       A
Bre gidi dzanum, bre gidi dzanum
hm D    A
Za dusmani
E         A    D    A
Uvek si bila u srcu mom,
hm   D(E7)A
Tu i ostani.

  hm(D)   E7          A  FINE
E|-10--10-12--9-|-----------|
H|--------------|-12--10----|
G|--------------|-----------|
D|--------------|-----------|
A|--------------|-----------|
E|--------------|-----------|

* - Ovde u pesmi idu solo udaraljke. Ritam je rumba.



_________________
Нисам писмен па зато не могу да оставим свој поптис овде.
 
beckham011
Upućeni član
Upućeni član





Datum registracije: 22 Sep 2008
Poruke: 417
Mesto: планета Земља

serbia.gif
PorukaPostavljena: Pon Avg 09, 2010 10:20 pm    Naslov poruke: Na vrh strane Na dno strane

Dragan Kojić – Keba - Cvecar

Code:
Uvod (2x):

E|---7----7-8-7---7------|-----------7-------------|
H|-----10-------8---10---|---10-8-10---10-7-10-8---|
G|-9---------------------|-8-----------------------|
D|-----------------------|-------------------------|
A|-----------------------|-------------------------|
E|-----------------------|-------------------------|

E|--------------------|-------------------|
H|------7-8---7-8-8-7-|--------8-7-7------|
G|----9-----9---------|-9-8----------9----|
D|-10-----------------|------9------------|
A|--------------------|-------------------|
E|--------------------|-------------------|

em                                           
Stari me je cvećar sreo, stao pa me prepoznao
              am     
Iz kafana sarajevskih...
H                                           
Od njega sam sveže ruže tebi uvek kupovao,
C               D  H 
Pa me pita gde si ti.

em                                           
Još čaršija priča o tom i kunu se svi životom
                   am     
Da smo bili par najlepši...
H                                         
Niz lice mu suza krenu, kaže neće se voleti
C          D   H 
Niko više kao mi.

Ref
C                    G        E7     
Uvela je sreća naša sa ružama crvenim,
am                   H7            em     
Ostala je priča meni tebi ljubav s drugim.
C                      G          E7           
Ponekad se tajno javiš i kažeš mi da sad žališ,
am                H7              em
Da te duša zaboli što se nismo uzeli.


        FINE
E|----------|
H|---8-7----|
G|-------9--|
D|-9--------|
A|----------|
E|----------|

_________________
Нисам писмен па зато не могу да оставим свој поптис овде.
 
beckham011
Upućeni član
Upućeni član





Datum registracije: 22 Sep 2008
Poruke: 417
Mesto: планета Земља

serbia.gif
PorukaPostavljena: Pon Avg 09, 2010 10:22 pm    Naslov poruke: Na vrh strane Na dno strane

Dragan Kojic – Keba – ‘Ej, Sudbino
Code:

  A                           F#7  hm  E               dm
E|---------|-------|---------|-------|-----------|-----------|
H|---------|-------|---------|-------|-5-7-5-7-5-|-5---------|
G|-7-6-----|-------|-7-6-----|-------|-----------|---7-7-7-6-|
D|-----7-7-|---6-7-|-----7-7-|---8-9-|-----------|-----------|
A|---------|-7-----|---------|-9-----|-----------|-----------|
E|---------|-------|---------|-------|-----------|-----------|
   A
E|------|-4-5-------------|
H|------|-----4-5---------|
G|-7--6-|---------5-6-----|
D|------|-------------6-7-|
A|------|-----------------|
E|------|-----------------|
   A                          F#7 hm   E               dm
E|---------|-------|---------|-------|-----------|-----------|
H|---------|-------|---------|-------|-5-7-5-7-5-|-5---------|
G|-7-6-----|-------|-7-6-----|-------|-----------|---7-7-7-6-|
D|-----7-7-|---6-7-|-----7-7-|---8-9-|-----------|-----------|
A|---------|-7-----|---------|-9-----|-----------|-----------|
E|---------|-------|---------|-------|-----------|-----------|

   A
E|------|-------------|
H|------|-----5-7-8-5-|
G|-4----|-7-6---------|
D|----7-|-------------|
A|------|-------------|
E|------|-------------|

A         F#7       hm
‘Ej, sudbino, ‘ej, sudbino
E         dm        A
Kud me ovaj zivot vodi
A         F#7         hm
‘Ej, sudbino, ej, reci mi
E         dm        A
Zasto mene, majko, rodi

Ref.
A        E D      A
Moja Dano, moja rano
         F#7        hm
Sve sam boli preboleo
A       E  F#7        hm
kunem srce, kunem dusu
dm        A
Sto sam tebe zavoleo

Ej, sudbino, ‘ej, sudbino
Ko od mene krije srecu
Zar Draganu, ‘ej, sudbino
Ja videti vise necu

Ref.

‘Ej, sudbino, ‘ej, reci mi
Zar za mene nema srece
‘Ej, sudbino, ‘ej, sudbino
Preboleti srce nece


   A                FINE
E|-4-5-------------|----|
H|-----4-5---------|----|
G|---------5-6-----|----|
D|-------------6-7-|-7--|
A|-----------------|----|
E|-----------------|----|

_________________
Нисам писмен па зато не могу да оставим свој поптис овде.
 
beckham011
Upućeni član
Upućeni član





Datum registracije: 22 Sep 2008
Poruke: 417
Mesto: планета Земља

serbia.gif
PorukaPostavljena: Pon Avg 09, 2010 10:23 pm    Naslov poruke: Na vrh strane Na dno strane

Dragan Kojic – Keba – Nemam Drage

Code:
Uvod: G# A F#m G#
Ritam je orijental (4/4)

  G#               A
|-4--4--4-4--4-4-|-5--5--5-5--5-5-|
|-4--4--4-4--4-4-|-5--5--5-5--5-5-|
|-5--5--5-5--5-5-|-6--6--6-6--6-6-|
|-6--6--6-6--5-6-|-7--7--7-7--7-7-|
|-6--6--6-6--6-6-|-7--7--7-7--7-7-|
|-4--4--4-4--4-4-|-5--5--5-5--5-5-|

  f#m              G#
|-2--2--2-2--2-2-|-4--4--4-4--4-4-|
|-2--2--2-2--2-2-|-4--4--4-4--4-4-|
|-2--2--2-2--2-2-|-5--5--5-5--5-5-|
|-4--4--4-4--4-4-|-6--6--6-6--6-6-|
|-4--4--4-4--4-4-|-6--6--6-6--6-6-|
|-2--2--2-2--2-2-|-4--4--4-4--4-4-|


G#7          c#m           F#7         H
Nemam drage, nemam druga, zivot mi je samo tuga
H             A           f#m       G#
Na mom polju nema cveca, jedina si moja sreca
G#                       f#m       G#
Na mom polju nema cveca, jedina si moja sreca

Secanje mi snagu daje, sve mi tvoje nedostaje
Na mom polju nema cveca, jedina si moja sreca

Pre trece strofe ide solo na harmonici. Dovoljno je u
ritmu okidati G#.

_________________
Нисам писмен па зато не могу да оставим свој поптис овде.
 
beckham011
Upućeni član
Upućeni član





Datum registracije: 22 Sep 2008
Poruke: 417
Mesto: планета Земља

serbia.gif
PorukaPostavljena: Pon Avg 09, 2010 10:25 pm    Naslov poruke: Na vrh strane Na dno strane

Dragan Kojic – Keba – Plavo Oko Plakalo Je
Code:
                                                 
Uvod:
   am     dm       am          E7              E7  am
E|---5-5-4-----|----------|-------------|-------------|
H|-5-------6---|-5--5-----|-------5-----|-------------|
G|-----------7-|------7-5-|-4-7-7---7-5-|-4-7-5-4-5---|
D|-------------|----------|-------------|-----------7-|
A|-------------|----------|-------------|-------------|
E|-------------|----------|-------------|-------------|

  am     dm      am          E7             am   G E7
E|---5-5-4-----|----------|---------------|-----------|
H|-5-------6---|-5--5-----|-------5-------|-----------|
G|-----------7-|------7-5-|-4-7-7---7-5-4-|-7-7-5-2---|
D|-------------|----------|---------------|-----------|
A|-------------|----------|---------------|-----------|
E|-------------|----------|---------------|-----------|


am          dm
Dugo cu dugo sanjati nocima,
E7            am G E7
Sanjati nocima,
am          dm
Suze u njenim plavim ocima,
E7        am A7
Plavim ocima.

dm      G           G7
Plavo oko plakalo je,
C           dm     
Mnogo snova nestalo je,
 E       
Samo suze kapi kise,
  E7      am (A7)
I nista vise. 

Znali smo da se moramo rastati,
Moramo rastati,
Al' ljubav nece nikada prestati,
Nikada prestati.

Ref...

Zauvek tuga bice u srcima,
Bice u srcima,
Mozda je takva nasa sudbina,
Nasa sudbina.

Ref...

Kraj:
   am     dm  E7 am  FINE
E|---5-5-4-5-7-|-8------|
H|-5-----------|--------|
G|-------------|--------|
D|-------------|--------|
A|-------------|--------|
E|-------------|--------|




Dragan Kojic – Keba – Plavo oko plakalo je
(sa solo pratnjom)

Code:
__________________________________________________________
Uvod:
   am     dm       am          E7              E7  am
E|---5-5-4-----|----------|-------------|-------------|
H|-5-------6---|-5--5-----|-------5-----|-------------|
G|-----------7-|------7-5-|-4-7-7---7-5-|-4-7-5-4-5---|
D|-------------|----------|-------------|-----------7-|
A|-------------|----------|-------------|-------------|
E|-------------|----------|-------------|-------------|

  am     dm      am          E7             am   G E7
E|---5-5-4-----|----------|---------------|-----------|
H|-5-------6---|-5--5-----|-------5-------|-----------|
G|-----------7-|------7-5-|-4-7-7---7-5-4-|-7-7-5-2---|
D|-------------|----------|---------------|-----------|
A|-------------|----------|---------------|-----------|
E|-------------|----------|---------------|-----------|

1.strofa:
  am          dm               E7        am  am    G E7
E|----------|---------------|--------------|----------|
H|----------|---------------|--------------|----------|
G|----------|-7------7------|-9-9-7--------|----------|
D|-7-7-9-10-|---10-9---10-9-|-------10-9-7-|-7--7-5-2-|
A|----------|---------------|--------------|----------|
E|----------|---------------|--------------|----------|
Dugo cu, dugo sanjati nocima, sanjati   nocima...

  am          dm             E7        am  am  A7
E|----------|--------------|-------------|------------|
H|----------|--------------|-------------|----6-5-----|
G|----------|-7-----7------|-9--7--------|--------7-5-|
D|-7-7-9-10-|---10----10-9-|------10-9-7-|-7----------|
A|----------|--------------|-------------|------------|
E|----------|--------------|-------------|------------|
 Suze u njenim plavim ocima, plavim     ocima...

Refren (svirati tremolo):
  dm          G       G7 C         dm
E|---------|-----------|---------|-----------|
H|---5-6-6-|-8-6-5-----|-----5-5-|-6-5-------|
G|-7-------|-------7-5-|-5-7-----|-----7-5-4-|
D|---------|-----------|---------|-----------|
A|---------|-----------|---------|-----------|
E|---------|-----------|---------|-----------|
  Plavo oko plakalo je. Mnogo snova nestalo je.

  E                      E7     am   am A7
E|---------|---------|-------------|------------|
H|---------|-5-------|---5---------|----6-5-----|
G|-4-5-7-7-|---7-5-4-|-7---7-5-4---|--------7-5-|
D|---------|---------|-----------7-|-7----------|
A|---------|---------|-------------|------------|
E|---------|---------|-------------|------------|
 Samo suze, kapi kise  i  nista   vise...

  dm          G       G7 C         dm
E|---------|-----------|---------|-----------|
H|---5-6-6-|-8-6-5-----|-----5-5-|-6-5-------|
G|-7-------|-------7-5-|-5-7-----|-----7-5-4-|
D|---------|-----------|---------|-----------|
A|---------|-----------|---------|-----------|
E|---------|-----------|---------|-----------|
  Plavo oko plakalo je. Mnogo snova nestalo je.

  E                      E7     am   am
E|---------|---------|-------------|--------|
H|---------|-5-------|---5---------|--------|
G|-4-5-7-7-|---7-5-4-|-7---7-5-4---|--------|
D|---------|---------|-----------7-|-7------|
A|---------|---------|-------------|--------|
E|---------|---------|-------------|--------|
 Samo suze, kapi kise  i  nista   vise...
__________________________________________________________
Instrumental (Uvod)...
   am     dm       am          E7              E7  am
E|---5-5-4-----|----------|-------------|-------------|
H|-5-------6---|-5--5-----|-------5-----|-------------|
G|-----------7-|------7-5-|-4-7-7---7-5-|-4-7-5-4-5---|
D|-------------|----------|-------------|-----------7-|
A|-------------|----------|-------------|-------------|
E|-------------|----------|-------------|-------------|

  am     dm      am          E7             am   G E7
E|---5-5-4-----|----------|---------------|-----------|
H|-5-------6---|-5--5-----|-------5-------|-----------|
G|-----------7-|------7-5-|-4-7-7---7-5-4-|-7-7-5-2---|
D|-------------|----------|---------------|-----------|
A|-------------|----------|---------------|-----------|
E|-------------|----------|---------------|-----------|

2.Strofa:
  am          dm               E7        am  am    G E7
E|----------|---------------|--------------|----------|
H|----------|---------------|--------------|----------|
G|----------|-7------7------|-9-9-7--------|----------|
D|-7-7-9-10-|---10-9---10-9-|-------10-9-7-|-7--7-5-2-|
A|----------|---------------|--------------|----------|
E|----------|---------------|--------------|----------|
Znali smo da se moramo rastati, moramo rastati...

   am          dm             E7        am  am  A7
E|-----------|--------------|-------------|------------|
H|-----------|--------------|-------------|----6-5-----|
G|-----------|-7-----7------|-9--7--------|--------7-5-|
D|--7-7-9-10-|---10----10-9-|------10-9-7-|-7----------|
A|-----------|--------------|-------------|------------|
E|-----------|--------------|-------------|------------|
Al’ ljubav nece nikada prestati, nikada prestati

Refren:
  dm          G       G7 C         dm
E|---------|-----------|---------|-----------|
H|---5-6-6-|-8-6-5-----|-----5-5-|-6-5-------|
G|-7-------|-------7-5-|-5-7-----|-----7-5-4-|
D|---------|-----------|---------|-----------|
A|---------|-----------|---------|-----------|
E|---------|-----------|---------|-----------|
  Plavo oko plakalo je. Mnogo snova nestalo je.

  E                      E7     am   am A7
E|---------|---------|-------------|------------|
H|---------|-5-------|---5---------|----6-5-----|
G|-4-5-7-7-|---7-5-4-|-7---7-5-4---|--------7-5-|
D|---------|---------|-----------7-|-7----------|
A|---------|---------|-------------|------------|
E|---------|---------|-------------|------------|
 Samo suze, kapi kise  i  nista   vise...

  dm          G       G7 C         dm
E|---------|-----------|---------|-----------|
H|---5-6-6-|-8-6-5-----|-----5-5-|-6-5-------|
G|-7-------|-------7-5-|-5-7-----|-----7-5-4-|
D|---------|-----------|---------|-----------|
A|---------|-----------|---------|-----------|
E|---------|-----------|---------|-----------|
  Plavo oko plakalo je. Mnogo snova nestalo je.

  E                      E7     am   am
E|---------|---------|-------------|--------|
H|---------|-5-------|---5---------|--------|
G|-4-5-7-7-|---7-5-4-|-7---7-5-4---|--------|
D|---------|---------|-----------7-|-7------|
A|---------|---------|-------------|--------|
E|---------|---------|-------------|--------|
 Samo suze, kapi kise  i  nista   vise...

__________________________________________________________
Instrumental (Uvod)...
   am     dm       am          E7              E7  am
E|---5-5-4-----|----------|-------------|-------------|
H|-5-------6---|-5--5-----|-------5-----|-------------|
G|-----------7-|------7-5-|-4-7-7---7-5-|-4-7-5-4-5---|
D|-------------|----------|-------------|-----------7-|
A|-------------|----------|-------------|-------------|
E|-------------|----------|-------------|-------------|

  am     dm      am          E7             am   G E7
E|---5-5-4-----|----------|---------------|-----------|
H|-5-------6---|-5--5-----|-------5-------|-----------|
G|-----------7-|------7-5-|-4-7-7---7-5-4-|-7-7-5-2---|
D|-------------|----------|---------------|-----------|
A|-------------|----------|---------------|-----------|
E|-------------|----------|---------------|-----------|

3. strofa:
  am          dm               E7        am  am    G E7
E|----------|---------------|--------------|----------|
H|----------|---------------|--------------|----------|
G|----------|-7------7------|-9-9-7--------|----------|
D|-7-7-9-10-|---10-9---10-9-|-------10-9-7-|-7--7-5-2-|
A|----------|---------------|--------------|----------|
E|----------|---------------|--------------|----------|
  Zauvek tuga bice u srcima,  bice   u  srcima...

  am          dm             E7        am  am  A7
E|----------|--------------|-------------|------------|
H|----------|--------------|-------------|----6-5-----|
G|----------|-7-----7------|-9--7--------|--------7-5-|
D|-7-7-9-10-|---10----10-9-|------10-9-7-|-7----------|
A|----------|--------------|-------------|------------|
E|----------|--------------|-------------|------------|
Mozda je takva nasa sudbina, nasa    sudbina

Refren:
  dm          G       G7 C         dm
E|---------|-----------|---------|-----------|
H|---5-6-6-|-8-6-5-----|-----5-5-|-6-5-------|
G|-7-------|-------7-5-|-5-7-----|-----7-5-4-|
D|---------|-----------|---------|-----------|
A|---------|-----------|---------|-----------|
E|---------|-----------|---------|-----------|
  Plavo oko plakalo je. Mnogo snova nestalo je.

  E                      E7     am   am A7
E|---------|---------|-------------|------------|
H|---------|-5-------|---5---------|----6-5-----|
G|-4-5-7-7-|---7-5-4-|-7---7-5-4---|--------7-5-|
D|---------|---------|-----------7-|-7----------|
A|---------|---------|-------------|------------|
E|---------|---------|-------------|------------|
 Samo suze, kapi kise  i  nista   vise
 
  dm          G       G7 C         dm
E|---------|-----------|---------|-----------|
H|---5-6-6-|-8-6-5-----|-----5-5-|-6-5-------|
G|-7-------|-------7-5-|-5-7-----|-----7-5-4-|
D|---------|-----------|---------|-----------|
A|---------|-----------|---------|-----------|
E|---------|-----------|---------|-----------|
  Plavo oko plakalo je. Mnogo snova nestalo je.

  E                      E7     am   am
E|---------|---------|-------------|----------|
H|---------|-5-------|---5---------|----------|
G|-4-5-7-7-|---7-5-4-|-7---7-5-4---|------4-5-|
D|---------|---------|-----------7-|-7--7-----|
A|---------|---------|-------------|----------|
E|---------|---------|-------------|----------|
 Samo suze, kapi kise  i  nista   vise...
________________________________________________________
     E7     am   am       am     dm  E7 am  FINE
E|-------------|--------|---5-5-4-5-7-|-8------|
H|---5---------|--------|-5-----------|--------|
G|-7---7-5-4---|--------|-------------|--------|
D|-----------7-|-7------|-------------|--------|
A|-------------|--------|-------------|--------|
E|-------------|--------|-------------|--------|
  I  nista   vise...
________________________________________________________

_________________
Нисам писмен па зато не могу да оставим свој поптис овде.
 
beckham011
Upućeni član
Upućeni član





Datum registracije: 22 Sep 2008
Poruke: 417
Mesto: планета Земља

serbia.gif
PorukaPostavljena: Pon Avg 09, 2010 10:27 pm    Naslov poruke: Na vrh strane Na dno strane

Dragan Kojic - Keba - Postao Sam Drug Samoce

Code:
UVOD:
T = 110
Ritam: 2/4

  A               A       E        F      H7       E     E7 
  _______ ______  _______ _______  ______   _____   _____ _______
E|---------------|----------------|---------------|--------------|
H|----5-4-5--3-2-|2-5-3-2-3-------|---------------|--------------|
G|2-2------------|----------1-2-4-|5--5-4-x-4-3-4-|4-------------|
D|---------------|----------------|---------------|----2-1-4-2-1-|
A|---------------|----------------|---------------|--------------|
E|---------------|----------------|---------------|--------------|
 
  A           E7           A           D
  ___________ ___________  ___________ _______               
E|------------------------|--------------------|
H|--------------2---3---5-|2-3-4-5-x-2---------|
G|--x-x-2-1-4-2---4-------|------------2-1-----|
D|2-----------------------|----------------5-4-|
A|------------------------|--------------------|
E|------------------------|--------------------|
 |_____6_____||_____6_____||____6_____|
 
   H7             E              E      A7     
                  ______________ _____________
  _______ ______ |1.           ||2.    _____ |
E|---------------|-------------||------------|
H|---------------|-------------||------2-3-5-|
G|------2-5--5-4-|4-x-------1-*||4-x---------|
D|--1-5----------|------2-4---*||------------|
A|2--------------|-------------||------------|
E|---------------|-------------||------------|



A
Jedno srce zaljubljeno,
              E E7   A
Nocas tuznu pesmu pise,
A                   D
Prestala su milovanja,
A         H7       E
I ljubavi nema vise..
           
Ref:
A
Nemam srece, otisla si,

I odnela sve,

Postao sam drug samoce,
       H7   E
I sudbine zle.

Moje srce nije stena,
Moram da te odbolujem,
U nocima mojim dugim,
Jos uvek te ocekujem.

Ref...

Suzo bola,ako moras
Da nakvasis moje lice,
Nemoj dugo da me mucis,
Nocu suze radosnice.

Ref...

   F      H7        E     
   ______   _____   
E|----------------|----------| ||
H|----------------|----------| ||
G|-5--5-4-x-4-3-4-|4----x----| ||
D|----------------|----------| ||
A|----------------|----------| ||
E|----------------|----------| ||

Znam da ovo nije najpravilniji zapis, ali sam hteo da sto
vernije prenesem notni zapis pomocu tablature.


Legenda:
|___6___| - sekstola (za one koji ne znaju: sest nota ogranicenih
            ovim znakom imaju trajanje od 1/4)

|1-2| – razmak obelezen jednom* crticom oznacava da prva nota traje 1/16

|1--2| – razmak od obelezen dvema crticama oznacava
         da prva nota traje 2/16 ili 1/8

|1---2| - razmak obelezen trima crticama oznacava
          da prva nota traje 3/16 tj. to je sesnaestina s tackom

|1----2| – razmak obelezen pomocu 4 crtice
           oznacava da prva nota traje 4/16 ili 2/8 tj. 1/4
         
x – oznaka za pauzu (veliko slovo X bi moglo da oznacava prigusenu zicu,
    odnosno zicu koja se ne okida)

| x- |** - sesnaestina pauze

| x-- | - osmina pauze

| x--- | - 3/16 pauze

| x---- | - 1/4 pauze

| x------ | - 3/8 pauze

  ___
|-1-2----| - oznaka za crtu koja spaja note (istog trajanja) u notnom sistemu
 ________
|1.      | - svira se prvi put do repeticije
 ________
|2.      | -  svira se drugi put do repeticije

| - sest uspravnih crtica jedna ispod druge oznacavu pocetak i kraj takta

|| - dve kolone od sest uspravnih crtica,
     gde ispred uspravnih crtica na trecoj i
     cetvrtoj liniji tablature stoji ’’zvezdica’’, oznacavaju  repeticiju

| || - tri ovakve kolone sa po sest uspravnih crtica oznacavaju kraj pesme,
       s tim da jedna odvojena kolona menja tanku uspravnu liniju,
       a dve preostale ’’zbijene’’ sluze kao oznaka za debelu uspravnu crtu,
       posto se kraj jedne celine (pesme) u notnom sistemu obelezava
       uspravnom tankom i debelom crtom 



* - Posto u ovoj pesmi u notnom zapisu ima najvise nota koje imaju trajanje 1/16,
    razmak od jedne crtice oznacava da nota traje 1/16.
    U drugim pesmama jedna crtica mogla bi da oznacava trajanje od 1/8.

_________________
Нисам писмен па зато не могу да оставим свој поптис овде.
 
beckham011
Upućeni član
Upućeni član





Datum registracije: 22 Sep 2008
Poruke: 417
Mesto: планета Земља

serbia.gif
PorukaPostavljena: Pon Avg 09, 2010 10:28 pm    Naslov poruke: Na vrh strane Na dno strane

Dragan Kojic – Keba - Prazno Srce, Prazna Dusa

Code:

   f#m                C#7        f#m
E|---------|---------|---------|---------|
H|-7-----7-|-7-----7-|-7-----7-|-7-----7-|
G|---6-6---|---6-6---|---6-6---|---6-6---|
D|---------|---------|---------|---------|
A|---------|---------|---------|---------|
E|---------|---------|---------|---------|

  f#m (f#m7)(f#m6) D   C#   C#7  f#m
E|---------|---------|---------|---------|
H|-7-----7-|-7-----7-|-7-----7-|-7-----7-|
G|---6-6---|---6-6---|---6-6---|---6-6---|
D|---------|---------|---------|---------|
A|---------|---------|---------|---------|
E|---------|---------|---------|---------|

f#m    D D#dim E E7 A C#7
Pogleda tvog osecam zar.
f#m    D D#dim E E7 A F#7
Da li je to sudbine dar?

Ref:
hm     G     C#7     f#m (F#7)
Prazno srce, prazna dusa.
hm     G    C#7   f#m (F#7)
Niti zivi, niti mre.
hm     G    C#7    f#m (F#7)
Umorna je, volela bi,
hm       G    C#7   f#m
Al’ se pita: da li sme?

   f#m            FINE             
E|----------|--------|
H|-7--------|-7------|
G|---6--6-6-|--------|
D|----------|--------|
A|----------|--------|
E|----------|--------|

_________________
Нисам писмен па зато не могу да оставим свој поптис овде.
 
beckham011
Upućeni član
Upućeni član





Datum registracije: 22 Sep 2008
Poruke: 417
Mesto: планета Земља

serbia.gif
PorukaPostavljena: Pon Avg 09, 2010 10:29 pm    Naslov poruke: Na vrh strane Na dno strane

Dragan Kojic – Keba – Sanjam
Code:

 em           C      am   H7   
|------|----7-10-8-7----|------|------|
|-8----|-10----------10-|-8----|-7----|
|------|----------------|------|------|
|------|----------------|------|------|
|------|----------------|------|------|
|------|----------------|------|------|

 em           C      am   H7          em
|------|----7-10-8-7----|------|------|
|-8----|-10----------10-|-8----|-7----|
|------|----------------|------|----9-|
|------|----------------|------|------|
|------|----------------|------|------|
|------|----------------|------|------|

A moze i oktavu nize:

 em           C      am   H7   
|-------|--------------|-------|------|
|-------|--------------|-------|------|
|-------|-----7--------|-------|------|
|-------|-7-9---10-9-7-|-------|------|
|-10----|--------------|-10----|-9----|
|-------|--------------|-------|------|

 em           C      am   H7          em
|-------|--------------|-------|-------|
|-------|--------------|-------|-------|
|-------|-----7--------|-------|-------|
|-------|-7-9---10-9-7-|-------|-------|
|-10----|--------------|-10----|-9--7--|
|-------|--------------|-------|-------|

em         C           
Necu... vise nikad nikog
am       H7       em
Necu... Ja zavoleti...
am       G   
Pa makar patio...

em         C              am
I znam... da me niko tako zeljno
H7        em
Nece ljubiti...

em            C     
Spavaj... spavaj, duso moja
am      H7       em
Nade su nase propale…
am      G
Ja sam za sve kriv...

    H           C
I sve sam shvatio:
C
Da bez malo bola,
D                H am G     H
Da bez suza nema ljubavi... Heeeeej...

Ref:
G     D
Sanjam...
am           C
Nove zvezde, nove ruke…
G   D
Bude...
am         H
Moju tugu, iznenada...

C             D              G
U meni zivis... i donosis mi bol...
am         H7        em
Znas li... osecas li to?

Solo (improvizovati prelaz):

  H               
|---------------------|
|--------------7-8-10-|
|----------7-9--------|
|-9-7-9-10------------|
|---------------------|
|---------------------|

  C          G          D          H7
|-7----|-10--8--|-8-10-12-|-12-12--7--|
|------|--------|---------|-----------|
|------|--------|---------|-----------|
|------|--------|---------|-----------|
|------|--------|---------|-----------|
|------|--------|---------|-----------|

  em          C        am
|-12-14-15-|-15--14-15-12--|
|----------|---------------|
|----------|---------------|
|----------|---------------|
|----------|---------------|
|----------|---------------|

  em   C   am  H7         *  em                         
|----7-8-7-------------|--------|
|-10-------10--8--7----|-7-8----|
|----------------------|-----9--|
|----------------------|--------|
|----------------------|--------|
|----------------------|--------|

 em *         C      am   H7   
|------|----7-10-8-7----|------|------|
|-8----|-10----------10-|-8----|-7----|
|------|----------------|------|------|
|------|----------------|------|------|
|------|----------------|------|------|
|------|----------------|------|------|
   
 em           C      am   H7        em
|------|----7-10-8-7----|------|------|
|-8----|-10----------10-|-8----|-7----|
|------|----------------|------|----9-|
|------|----------------|------|------|
|------|----------------|------|------|
|------|----------------|------|------|

em        C           
Spavaj... spavaj, duso moja
am        H7         em
Sve ce se jednom vratiti...
am    G         H   
Dobro ili zlo...

C
Bez malo bola
D               H am G     H
I bez suza nema radosti... Heeeej...

Ref:
G     D
Sanjam...
am           C
Nove zvezde, nove ruke…
G   D
Bude...
am         H
Moju tugu, iznenada...

C             D              G
U meni zivis... i donosis mi bol...
am         H7        em
Znas li... osecas li to?

* - Taktovi obelezeni zvezdicom oznacavaju da se u pesmi
 u pesmi taktovi preklapaju, tj. da upadica
 na akusticnoj gitari upada tokom poslednjeg takta
 odsviranog na elektricnoj. 

_________________
Нисам писмен па зато не могу да оставим свој поптис овде.
 
beckham011
Upućeni član
Upućeni član





Datum registracije: 22 Sep 2008
Poruke: 417
Mesto: планета Земља

serbia.gif
PorukaPostavljena: Pon Avg 09, 2010 10:31 pm    Naslov poruke: Na vrh strane Na dno strane

Dragan Kojić - Keba - Srce Kuca Tvoje Ime
Code:

Uvod: gm

gm
Kad je ljubav tajna
G7           cm
I tuga se krije.
               gm
To ne može znati,
F        gm
Ko voleo nije.
             
Ref:
gm        cm
Srce kuca tvoje ime.
F             B
Niko ga ne sme znati.
cm        D D#   
S ljubavlju tebi od mene,
cm    (D   cm)    D
Neka te sreća prati.
   
  gm               cm         F              B
E|---------------|---------|---------------|--------|
H|-------8-6-----|---------|-------6-------|--------|
G|-----7-----8-7-|-5--7-8--|-----5---8-8-7-|-7------|
D|-5-8-----------|---------|---7-----------|--------|
A|---------------|---------|-8-------------|--------|
E|---------------|---------|---------------|--------|

  cm          cm          gm          gm
E|-----------|-----------|-----------|-----------|
H|---8-------|-8---------|-----------|-----------|
G|------10-8-|---10--8-7-|---10--8-7-|-10-8-7----|
D|-8---------|-----------|-8---------|--------10-|
A|-----------|-----------|-----------|-----------|
E|-----------|-----------|-----------|-----------|

  F            D7   gm
E|----|------|---------|----|
H|----|------|---------|----|
G|----|------|---------|----|
D|-7--|-8--7-|------5--|----|
A|----|------|-8-5-----|----|
E|----|------|---------|----|

   cm        cm         gm          gm
E|----------|----------|----------|----------|
H|----------|----------|----------|----------|
G|---8--7-5-|-8-7--5---|---7--5---|-7-5------|
D|-5--------|--------8-|-5------8-|------8-7-|
A|----------|----------|----------|----------|
E|----------|----------|----------|----------|

  F            D7   gm   gm
E|-5--|-6--5-|---------|-----|
H|----|------|-6----8--|-1s8-|
G|----|------|---7-----|-----|
D|----|------|---------|-----|
A|----|------|---------|-----|
E|----|------|---------|-----|

gm
Ne plašim se dana
G7          cm
Kad me neće biti.
             gm
Plašim se za tebe,
F          gm
To ne mogu kriti.

Ref:
gm        cm
Srce kuca tvoje ime.
F             B
Niko ga ne sme znati.
cm        D D#   
S ljubavlju tebi od mene,
cm    (D   cm)    D
Neka te sreća prati.

  gm               cm         F              B
E|---------------|---------|---------------|--------|
H|-------8-6-----|---------|-------6-------|--------|
G|-----7-----8-7-|-5--7-8--|-----5---8-8-7-|-7------|
D|-5-8-----------|---------|---7-----------|--------|
A|---------------|---------|-8-------------|--------|
E|---------------|---------|---------------|--------|
  cm          cm          gm          gm
E|-----------|-----------|-----------|-----------|
H|---8-------|-8---------|-----------|-----------|
G|------10-8-|---10--8-7-|---10--8-7-|-10-8-7----|
D|-8---------|-----------|-8---------|--------10-|
A|-----------|-----------|-----------|-----------|
E|-----------|-----------|-----------|-----------|
  F            D7   gm
E|----|------|---------|----|
H|----|------|---------|----|
G|----|------|---------|----|
D|-7--|-8--7-|------5--|----|
A|----|------|-8-5-----|----|
E|----|------|---------|----|

  cm          cm         gm         gm     
E|----------|----------|----------|----------|
H|----------|----------|----------|----------|
G|---8--7-5-|-8-7--5---|---7--5---|-7-5------|
D|-5--------|--------8-|-5------8-|------8-7-|
A|----------|----------|----------|----------|
E|----------|----------|----------|----------|
 
  F            D7   gm   gm
E|-5--|-6--5-|---------|-8-8s3-|
H|----|------|-6----8--|-------|
G|----|------|---7-----|-------|
D|----|------|---------|-------|
A|----|------|---------|-------|
E|----|------|---------|-------|

Ref:
gm        cm
Srce kuca tvoje ime.
F             B
Niko ga ne sme znati.
cm        D D#   
S ljubavlju tebi od mene,
cm    (D   cm)    D
Neka te sreća prati.

                          (solo udaraljke – fade out)
   F           D7 gm     FINE
E|----|------|---------|----|
H|----|------|---------|----|
G|----|------|---------|----|
D|-7--|-8--7-|---------|----|
A|----|------|-8-5-----|----|
E|----|------|---------|----|

_________________
Нисам писмен па зато не могу да оставим свој поптис овде.
 
beckham011
Upućeni član
Upućeni član





Datum registracije: 22 Sep 2008
Poruke: 417
Mesto: планета Земља

serbia.gif
PorukaPostavljena: Pon Avg 09, 2010 10:32 pm    Naslov poruke: Na vrh strane Na dno strane

Dragan Kojic - Keba - U Snu Ljubim Medna Usta

Code:
Uvod(2x): hm, em, A, D, hm, em, F#, hm
Napomena: Kod uvoda,dovoljno je,umesto celog akorda hm udariti
na pocetku sestu zicu(ton H), a onda em

Solo:

E |----------|----------|-7-9-10—9-|--7-9-7-|-------------|------—------|
H |----------|----------|7---------|-7------|-------------|-------------|
G |----------|----------|----------|6-------|-------------|--16-14------|
D |----------|-9-7------|----------|--------|14--17-16-14-|14-----17-16-|
A |7--10-9-7-|7---10-9--|----------|--------|-------------|-------------|
E |----------|----------|----------|--------|-------------|-------------|

E |-7-9-10—9-|--7-9-7-|10-9-7---|---------|
H |7---------|-7------|------8-7|---------|
G |----------|6-------|---------|7-6-4----|
D |----------|--------|---------|-----5-4-|
A |----------|--------|---------|---------|
E |----------|--------|---------|---------|


hm               em
Sanjao sam nocas jedno crno oko,
F#                (G A) hm
Leteo sam u snovima ... visoko, visoko

Ref:
em          A      D
U snu ljubim medna usta,
hm       em  F#       hm
Eh ,ljubavi ,zeljo pusta

hm                em
Plakalo je jutros jedno crno oko,
F#               (G A) hm
Tonuo sam u ponore ... duboko, duboko

Ref:

Ref:

E |----------14-|
H |--14-15-17---|
G |16-----------|
D |-------------|
A |-------------|
E |-------------|

Ref:
hm      em   F#       hm
Eh, ljubavi ,zeljo pusta

Kraj:
   hm   em F#  hm
E |-------|------|
H |-------|------|
G |-------|------|
D |9------|----9-|
A |-12-10-|10----|
E |-------|------|

_________________
Нисам писмен па зато не могу да оставим свој поптис овде.
 
beckham011
Upućeni član
Upućeni član





Datum registracije: 22 Sep 2008
Poruke: 417
Mesto: планета Земља

serbia.gif
PorukaPostavljena: Pon Avg 09, 2010 10:34 pm    Naslov poruke: Na vrh strane Na dno strane

Dragan Kojić - Keba - Žal Za Usnama
Code:

  am                (solo udaraljke)
E|-----------------|----------------|
H|-----------------|----------------|
G|-----------------|----------------|
D|---7----10-9-7---|----------------|
A|-7---10----------|----------------|
E|-----------------|----------------|
                    Na-na-na-na-naj!

  dm                (solo udaraljke)
E|-----------------|----------------|
H|-----------------|----------------|
G|---7----10-9-7---|----------------|
D|-7---10----------|----------------|
A|-----------------|----------------|
E|-----------------|----------------|
                    Na-na-na-na-naj!

   dm C  E7 am  dm C E7 am E7 am dm
E|-------------|-------------------|
H|-------------|-------------------|
G|-9--7--------|-9-7---------------|
D|-------10--9-|-----10-9-7-9-10-7-|
A|-------------|-------------------|
E|-------------|-------------------|
                Žal za usnama!
 
Uvod (2x)         
  dm                         G7           C
E|---------|---------------|------------|----------|
H|---------|---------------|------------|----------|
G|-7---7-7-|-7-9-7-9--7--9-|-10----9--7-|----------|
D|---7-----|---------------|------------|-10-------|
A|---------|---------------|------------|----------|
E|---------|---------------|------------|----------|

   E7                                                           am                       
E|------------------|------------------------|-----------------|--------|
H|-----9---7---10---|------------------------|-----------------|--------|
G|------------------|----7-------------------|-7-9----7--------|--------|
D|-7-7---7---7----7-|-9----10-9-10--9---9-10-|-----10---9--7-6-|-7------|
A|------------------|-----------------7------|-----------------|--------|
E|------------------|------------------------|-----------------|--------|

am
Još tvoje usne i tvoje oči
E    E7      am-G G-G-am
Sanjam noćima.
am
A kada umrem,znam da ću biti
E      E7        am-G G-G-am
S tobom u mislima.

Ref:
dm            G7      C
Ostaće žal za tvojim usnama!
E E7                am
Umreću ja za tvojim rukama!
dm            G7      C
Ostaće žal za plavim očima!
E7             am
Ostaće žal za usnama!

  dm                         G7           C
E|---------|---------------|------------|----------|
H|---------|---------------|------------|----------|
G|-7---7-7-|-7-9-7-9--7--9-|-10----9--7-|----------|
D|---7-----|---------------|------------|-10-------|
A|---------|---------------|------------|----------|
E|---------|---------------|------------|----------|

   E7                    _________                               am   
E|------------------|------------------------|-----------------|--------|
H|-----9---7---10---|------------------------|-----------------|--------|
G|------------------|----7-------------------|-7-9----7--------|--------|
D|-7-7---7---7----7-|-9----10-9-10--9---9-10-|-----10---9--7-6-|-7------|
A|------------------|-----------------7------|-----------------|--------|
E|------------------|------------------------|-----------------|--------|

am       
Bez tebe draga na polju mome
E    E7      am-G G-G-am
Cvetovi umiru.
am
A srce kaže:”Ljubavi prave
E      E7        am-G G-G-am
Zauvek ostaju.”
         
Ref:
dm            G7      C
Ostaće žal za tvojim usnama!
E E7                am
Umreću ja za tvojim rukama!
dm            G7      C
Ostaće žal za plavim očima!
E      E7     am
Ostaće žal za usnama!

  am                               
E|------------------|---------------|
H|------------------|---------------|
G|------------------|----9-8-7------|
D|----7-----10-10-8-|-7--------10-7-|
A|-7-----10---------|---------------|
E|------------------|---------------|

                      E  _______________*
E|-------------------|-------------------|
H|-------------------|-------------------|
G|-7-----------------|---10-9-7----------|
D|---10-8-10--7------|----------10-9-7-6-|
A|--------------10-8-|-7-----------------|
E|-------------------|-------------------|
  am                 dm
E|------------------|---------------|
H|------------------|---------------|
G|------------------|----9-8-7------|
D|----7-----10-10-8-|-7--------10-7-|
A|-7-----10---------|---------------|
E|------------------|---------------|

   am             F                dm        E
  _______ _______ _______ ______   ______________
E|-------------------------------|------------------|
H|------8------------------------|------------------|
G|-9-10---10-9---------7---------|------------------|
D|-------------10-9-10----10-9-7-|-6-7-9-7-6--------|
A|-------------------------------|-----------8--7---|
E|-------------------------------|------------------|
 |___3___|___3___|___3___|___3___|**

  dm                         G7           C
E|---------|---------------|------------|----------|
H|---------|---------------|------------|----------|
G|-7---7-7-|-7-9-7-9--7--9-|-10----9--7-|----------|
D|---7-----|---------------|------------|-10-------|
A|---------|---------------|------------|----------|
E|---------|---------------|------------|----------|

   E7                                                           am      dm       
E|------------------|------------------------|-----------------|----------|
H|-----9---7--------|------------------------|-----------------|----------|
G|-------------10---|----7-------------------|-7-9----7--------|----------|
D|-7-7---7---7----7-|-9----10-9-10--9---9-10-|-----10---9--7-6-|-7-9-10-7-|
A|------------------|-----------------7------|-----------------|----------|
E|------------------|------------------------|-----------------|----------|
       
Ref:
dm            G7      C
Ostaće žal za tvojim usnama!
E E7                am
Umreću ja za tvojim rukama!
dm            G7      C
Ostaće žal za plavim očima!
E    E7           am
Ostaće žal za usnama!

   dm   E7    am  FINE
E|----------|---------|
H|----------|-10------|
G|-10-9-7-9-|---------|
D|----------|---------|
A|----------|---------|
E|----------|---------|

* - oznaka za liniju koja spaja note istog trajanja
** - triola

_________________
Нисам писмен па зато не могу да оставим свој поптис овде.
 
Prikaz poruka:   
Upišite novu temu   Odgovorite na temu    www.domaci.de Forum Indeks -> ~ Naša MP3 riznica ~ -> ~ Akordi i tablature ~ -> Dragan Kojić - Keba Vreme je podešeno za GMT + 1 sat
Strana 1 od 1

 
Pređite u:  
Vi ne možete otvarati nove teme u ovom forumu
Vi ne možete odgovarati na teme u ovom forumu
Vi ne možete menjati Vaše poruke u ovom forumu
Vi ne možete brisati Vaše poruke u ovom forumu
Vi ne možete glasati u anketama u ovom forumu
Vi ne možete postavljati fajlove u ovom forumu
Vi ne možete preuzeti fajlove sa ovog foruma





- Burek Forum - Doček Nove 2018. godine - Venčanja, svadbe - Proslave - TipoTravel - Kuda večeras -

Bookmark to: Twitter Bookmark to: Facebook Bookmark to: Digg Bookmark to: Del.icio.us Bookmark to: StumbleUpon