www.domaci.de Forum Indeks Home
Portal • Forum • Novi upisi • Pretraga • Link do nas • Domaći filmovi • Lista korisnika • Tim sajta • Proverite privatne poruke • Prijava • Registracija
Pravilnik • FAQ • Profil • Favorites • Galerija slika • Top lista • Download MP3 • MP3 razno • Spotovi • Noviteti 2013 • Muzički noviteti 2014

Miroslav Ilić - akordi
Upišite novu temu   Odgovorite na temu    www.domaci.de Forum Indeks -> ~ Naša MP3 riznica ~ -> ~ Akordi i tablature ~
::  
Autor Poruka
beckham011
Upućeni član
Upućeni član





Datum registracije: 22 Sep 2008
Poruke: 417
Mesto: планета Земља

serbia.gif
PorukaPostavljena: Sub Avg 07, 2010 11:28 pm    Naslov poruke: Miroslav Ilić - akordi Na vrh strane Na dno strane

Miroslav Ilic - Bozanstvena zeno

Code:
C                    F
Ne znam sta je vrednije u tebi:
G7                            C
Da l’ si bolja ili lepsa zena?
am              dm
Zivecu i voleti tebe...
G7                                C       E7
Kunem ti se da si bozanstvena.

Ref:
am                        E7
Bozanstvena zeno, sve cu da ti dam.
                                        am
Vezala nas ljubav kao noc i dan.
G                                 
Moja sreca to su ta dva oka tvoja.
F                             E7         am
Bozanstvena zeno...i...boginjo moja.

Ne znam cime vise me privlacis:
Da l’ lepotom il’ dobrotom?
I kisa mi pored tebe prija....
Kunem ti se da si najmilija.

Ref.

Ne znam sta cu uciniti za te,
Al’ znam drugu ljubav necu.
Delicemo i dane, i sate...
Kunem ti se, donecu ti srecu.

Ref.



_________________
Нисам писмен па зато не могу да оставим свој поптис овде.
 
beckham011
Upućeni član
Upućeni član





Datum registracije: 22 Sep 2008
Poruke: 417
Mesto: планета Земља

serbia.gif
PorukaPostavljena: Sub Avg 07, 2010 11:33 pm    Naslov poruke: Na vrh strane Na dno strane

Miroslav Ilic – Zoves me na vino

Code:
uvod:am,C,dm,am,F,G,am

 am                      C       
Zoves me na vino, zoves me na lom.
 dm                        F   G       am 
Zar ne vidis, druze, bol na licu mom?

Ref:
 C
Daj mi samo hleba,daj mi malo soli
 dm         G              C
I najdrazu zenu koju srce voli!
 C         
Daj mi samo hleba, daj mi malo soli
 dm           G     C    dm   C    G      am
I najdrazu zenu koju srce voli,koju srce voli!

Zoves me da pevam, zoves me da pijem!
Zar ne vidis, druze, kakvu tugu krijem?

Ref.

Nema takvog vina, nema takvih reci.
Nista moju tugu nece da izleci.

Ref.

_________________
Нисам писмен па зато не могу да оставим свој поптис овде.
 
beckham011
Upućeni član
Upućeni član





Datum registracije: 22 Sep 2008
Poruke: 417
Mesto: планета Земља

serbia.gif
PorukaPostavljena: Sub Avg 07, 2010 11:34 pm    Naslov poruke: Na vrh strane Na dno strane

Miroslav Ilic – Ostavi mi prozor otvoren

Uvod:
bm C#
E|-------------------|------------------------|
H|-------------------|------------------------|
G|-------------------|----------------10-8----|
D|-8-8-8-8-8-11-10-8-|-11-11-11-11-11------11-|
A|-------------------|------------------------|
E|-------------------|------------------------|

F# C# d#m d#m bm G# bm
E|-------------------------------|------------------|
H|-------------------------------|------------------|
G|-11-11-11-11-10----------------|-8----8-----------|
D|-------------------11-11-11-11-|--------11-10-8---|
A|-------------------------------|------------------|
E|-------------------------------|------------------|

bm C#
E|-------------------|------------------------|
H|-------------------|------------------------|
G|-------------------|----------------10-8----|
D|-8-8-8-8-8-11-10-8-|-11-11-11-11-11------11-|
A|-------------------|------------------------|
E|-------------------|------------------------|

F# C# d#m d#m bm G# bm
E|-------------------------------|------------------|
H|-------------------------------|------------------|
G|-11-11-11-11-10----------------|-8----8-----------|
D|-------------------11-11-11-11-|--------11-10-8---|
A|-------------------------------|------------------|
E|-------------------------------|------------------|

bbm G#
E|-------------|---------------------------------|
H|-------------|---------------------------------|
G|-------------|----10----10----10----10---------|
D|-8--8-8--8-8-|-11----11----11----11-------8-10-|
A|-------------|-------------------------11------|
E|-------------|---------------------------------|

Code:
1.
bm               F7(fm7)       bm
Hej, devojce, pitomo i mazno
bm        G#     bm               
Ostade mi srce prazno.
d#m          G#
Srce prazno, a noc puna zvezda,
C#             G#            bm
Ne znam gde cu k’o ptica bez gnezda

Ref:
d#m       G#7        C#
Ostavi mi prozor otvoren!
d#m       G#7      C#
Docicu ti bolom umoren!

bm                 
Primi me k’o nekad mila,
C#
Zar si sve zaboravila?
d#m         C#
Hoce gresku da ispravi
G#          bm
Kockar ljubavi!

bm
O, primi me k’o nekad mila,
C#
Zar si sve zaboravila?
d#m       
Hoce gresku da ispravi
            bm
Kockar ljubavi!

2.
bm            fm         bm
Daj, devojce, opet da te ljubim,
bm        G#      bm               
Ne daj mi da nadu gubim!
d#m         G#
Drhte grudi do dna bolom pune
C#          G#         bm
K’o gitari kad jecaju strune!

Ref:
d#m       G#7        C#
Ostavi mi prozor otvoren!
d#m       G#7      C#
Docicu ti bolom umoren!

bm                 
Primi me k’o nekad mila,
C#
Zar si sve zaboravila?
d#m         C#
Hoce gresku da ispravi
G#          bm
Kockar ljubavi!

bm
O, primi me k’o nekad mila,
C#
Zar si sve zaboravila?
d#m       
Hoce gresku da ispravi
            bm
Kockar ljubavi!

3.
bm           fm          bm
Hej, devojce, mnogo mi je zao.
bm          G#     bm               
Sta ce biti nisam znao
d#m      G#
Ovu noc ja trenuti necu
C#          G#          bm
Suza blista k’o rosa na cvecu!

Ref:
d#m       G#7        C#
Ostavi mi prozor otvoren!
d#m       G#7      C#
Docicu ti bolom umoren!

bm                 
Primi me k’o nekad mila,
C#
Zar si sve zaboravila?
d#m         C#
Hoce gresku da ispravi
G#          bm
Kockar ljubavi!

bm
O, primi me k’o nekad mila,
C#
Zar si sve zaboravila?
d#m                     F   
Hoce gresku da ispravi

F F
E|------------------------------------|-----------------------------|
H|---------------------------9--------|-----------------------------|
G|-10-11-10-8-10--10-8-10-11----11-10-|-10-----10--10-10--10--10-10-|
D|------------------------------------|-----------------------------|
A|------------------------------------|-----------------------------|
E|------------------------------------|-----------------------------|

Kockar ljubavi!

F bm bm FINE
E|-------------------------------|----------|
H|----------------------------11-|-11-------|
G|-10----10--10-10--10--10-10----|----------|
D|-------------------------------|----------|
A|-------------------------------|----------|
E|-------------------------------|----------|

_________________
Нисам писмен па зато не могу да оставим свој поптис овде.
 
beckham011
Upućeni član
Upućeni član





Datum registracije: 22 Sep 2008
Poruke: 417
Mesto: планета Земља

serbia.gif
PorukaPostavljena: Pon Avg 09, 2010 9:10 pm    Naslov poruke: Na vrh strane Na dno strane

Code:
Miroslav Ilic - Pozdravi Je, Pozdravi

uvod :  | am C G | am C G am G am |   

am            (C)   dm
Pricaj mi o njoj, pricaj sve sto znas.
             am   G            am
Reci, da l' je boli sad rastanak nas?
    C     G                am
Ali, nemoj, laznu nadu da mi das.

ref.:
C
Pozdravi je, pozdravi!
F
Volim je k'o pre!
dm                        am
Eh, da mogu poslati joj suze…
G           am G  am
Suze bi joj rekle sve.

Vidjas li je s kim, ko je srecnik taj?
Da li joj na licu blista srece sjaj?
Il' jos uvek nije prebolela kraj?

Ref.

Nisam sreo jos ljubav slicnu njoj,
A sreo sam zena ne zna im se broj.
Samo ona srecnim cini zivot moj.

Ref.

_________________
Нисам писмен па зато не могу да оставим свој поптис овде.
 
beckham011
Upućeni član
Upućeni član





Datum registracije: 22 Sep 2008
Poruke: 417
Mesto: планета Земља

serbia.gif
PorukaPostavljena: Pon Avg 09, 2010 10:54 pm    Naslov poruke: Na vrh strane Na dno strane

Miroslav Ilic – Jesen Sedamdeset I Neke

Code:
Uvod:
   F#                  em      F#     em                   F#
E|-------------10--9-|-------------|---------------------|-------|
H|-------------------|-12----------|-----------12-----11-|-------|
G|-11-11-11-11-------|-----12-11---|-12-12-12------12----|-11----|
D|-------------------|-------------|---------------------|-------|
A|-------------------|-------------|---------------------|-------|
E|-------------------|-------------|---------------------|-------|
                                     |___3___|*

  F#                                     F#       F#7     hm   F#7       
E|--------------------|----------------|----------10--9-|-----------9-|
H|--------------------|----------------|----------------|-12--10-12---|
G|-12-11-9----------9-|---11--12--11---|-11-11-11-------|-------------|
D|---------12-11-12---|----------------|----------------|-------------|
A|--------------------|----------------|----------------|-------------|
E|--------------------|----------------|----------------|-------------|

hm
Ne volim jesen
F#7                     hm
Ne volim kad pada lisce zlatno.
Em       F#                       
ne volim kise,
                     Hm
A ne volis ni ti verovatno...
                 

Prelaz na refren: hm A D


Ref:
D        A7      D
Jesen je plakala s tobom...
D         H7       em
Jesen sedamdeset i neke...
A                  hm   
Kada smo poslednji put...
em  A       hm
Setali kraj reke...

Od onog dana...
O tebi bas nista ja ne cujem.
Jos ne znam gde si...
iako se cesto raspitujem.

Ref.

A zivot tece...
Pomera se starog sata klatno.
Jesen se vrati...
A ti, mila, ode nepovratno

Ref.

Kraj:
(improvizcija)**
   F#                     F#7          hm     hm
E|--------10-9---------|------------------|---19----|
H|-----12-------12-----|---------------12-|---------|
G|-11---------------11-|-11-12-11--12-----|---------|
D|---------------------|------------------|---------|
A|---------------------|------------------|---------|
E|---------------------|------------------|---------|

* - triola
** - Improvizacija jer na kraju pesme dominiraju
     harmonika i violina,a ne gitara pa sam zato i stavio
     da se može improvizovati po potrebi.

_________________
Нисам писмен па зато не могу да оставим свој поптис овде.
 
Prikaz poruka:   
Upišite novu temu   Odgovorite na temu    www.domaci.de Forum Indeks -> ~ Naša MP3 riznica ~ -> ~ Akordi i tablature ~ -> Miroslav Ilić - akordi Vreme je podešeno za GMT + 1 sat
Strana 1 od 1

 
Pređite u:  
Vi ne možete otvarati nove teme u ovom forumu
Vi ne možete odgovarati na teme u ovom forumu
Vi ne možete menjati Vaše poruke u ovom forumu
Vi ne možete brisati Vaše poruke u ovom forumu
Vi ne možete glasati u anketama u ovom forumu
Vi ne možete postavljati fajlove u ovom forumu
Vi ne možete preuzeti fajlove sa ovog foruma





- Burek Forum - Doček Nove 2018. godine - Venčanja, svadbe - Proslave - TipoTravel - Kuda večeras -

Bookmark to: Twitter Bookmark to: Facebook Bookmark to: Digg Bookmark to: Del.icio.us Bookmark to: StumbleUpon